Song name
# A B C D E F G H I J K L M N O P Q R S T U V W X Y Z

Side Walk Slam - Time Will Pass You By tab

Artist:sidewalk slam
Song: Time will pass you by
tabbed by:sg_Smith49
email:sg_smith49@yahoo.com

Sidewalk slam rules!!!!!!!!!!!!!!
tuning-standard
Intro
e|-------------------------------------------------------------|
B|-------------------------------------------------------------|
G|---7-7-7-7-7-7-7-7---5-5-5-5-5-5-5-5-------------------------|
D|---7-7-7-7-7-7-7-7---5-5-5-5-5-5-5-5-------------------------|
A|---5-5-5-5-5-5-5-5---3-3-3-3-3-3-3-3-------------------------|
E|-------------------------------------------------------------|
Verse .... 0:06
e|-------------------------------------------------------------|
B|-------------------------------------------------------------|
G|---7-7-7-7-7---4-4-4-4-4-------------------------------------|
D|---7-7-7-7-7---4-4-4-4-4---7-7-7-7-7---5-5---7-7-------------|X2
A|---5-5-5-5-5---2-2-2-2-2---7-7-7-7-7---5-5---7-7-------------|
E|---------------------------5-5-5-5-5---3-3---5-5-------------|
Chorus ....0:17
e|-------------------------------------------------------------|
B|-------------------------------------------------------------|
G|---------7---------------------------------------------------|
D|---5-5---7--7-7-7---9-9-9-9----------------------------------|X4
A|---5-5---5--7-7-7---9-9-9-9----------------------------------|
E|---3-3------5-5-5---7-7-7-7----------------------------------|
Verse .... 0:27
e|-------------------------------------------------------------|
B|-------------------------------------------------------------|
G|---7-7-7-7-7---4-4-4-4-4-------------------------------------|
D|---7-7-7-7-7---4-4-4-4-4---7-7-7-7-7---5-5---7-7-------------|X2
A|---5-5-5-5-5---2-2-2-2-2---7-7-7-7-7---5-5---7-7-------------|
E|---------------------------5-5-5-5-5---3-3---5-5-------------|
Chorus.... 0:37
e|-------------------------------------------------------------|
B|-------------------------------------------------------------|
G|---------7---------------------------------------------------|
D|---5-5---7--7-7-7---9-9-9-9----------------------------------|X4
A|---5-5---5--7-7-7---9-9-9-9----------------------------------|
E|---3-3------5-5-5---7-7-7-7----------------------------------|
Bridge.... 0:47
e|-------------------------------------------------------------|
B|-------------------------------------------------------------|
G|---7-7--9--11---7-7-7--9--11---9-9-9-9--6-6--7---------------|
D|---x-x--x---x---x-x-x--x---x---x-x-x-x--x-x--x---------------|X2
A|---5-5--7---9---5-5-5--7---9---7-7-7-7--4-4--5---------------|
E|-------------------------------------------------------------|

e|-------------------------------------------------------------|
B|-------------------------------------------------------------|
G|-------------------------------------------------------------|
D|---5-5-5-5-5-5-5-5-5---7-7-7-7-7-7-7-7-7---------------------|
A|---5-5-5-5-5-5-5-5-5---7-7-7-7-7-7-7-7-7---------------------|
E|---3-3-3-3-3-3-3-3-3---5-5-5-5-5-5-5-5-5---------------------|
       x x x x x           x x x x x
Bass Solo.... 1:04
Chorus.....   1:19
e|-------------------------------------------------------------|
B|-------------------------------------------------------------|
G|---------7---------------------------------------------------|
D|---5-5---7--7-7-7---9-9-9-9----------------------------------|X7
A|---5-5---5--7-7-7---9-9-9-9----------------------------------|
E|---3-3------5-5-5---7-7-7-7----------------------------------|
Ending
e|-------------------------------------------------------------|
B|-------------------------------------------------------------|
G|---------7---------------------------------------------------|
D|---5-5---7--7-7-7---9-9-9------------------------------------|
A|---5-5---5--7-7-7---9-9-9------------------------------------|
E|---3-3------5-5-5---7-7-7------------------------------------|

sidewalk slam rocks. God Bless!

Tap to rate this tab
# A B C D E F G H I J K L M N O P Q R S T U V W X Y Z