Song name
# A B C D E F G H I J K L M N O P Q R S T U V W X Y Z

Sidney Samson - Riverside tab

This song has 3 mains parts, the 1st 2 sound the same and the last is totally different

: means new bar

1st part

Eb:0-0-0-0-5-0-3-0-:2-3-0-2---------:
Bb:----------------:--------1--0----:
Gb:----------------:--------------2-:
Db:----------------:----------------:
Ab:----------------:----------------:
Eb:----------------:----------------:

2nd Part

Eb:0-000-0-550-3-0-:023-0-2---------:
Bb:----------------:--------11-0----:
Gb:----------------:--------------2-:
Db:----------------:----------------:
Ab:----------------:----------------:
Eb:----------------:----------------:

Last Part

Eb:0-000-0--50-3-0-:--3-5-5-333--0--:0-000-0--50-3-0-:--5---5-0-5-0---:
Bb:----------------:----------------:----------------:----1-----------:
Gb:----------------:---------------2:----------------:2-------------2-:
Db:----------------:----------------:----------------:----------------:
Ab:----------------:----------------:----------------:----------------:
Eb:----------------:----------------:----------------:----------------:
Tap to rate this tab
# A B C D E F G H I J K L M N O P Q R S T U V W X Y Z