Song name
# A B C D E F G H I J K L M N O P Q R S T U V W X Y Z

Sido - Sie Bleibt tab

Tabbed by Red-Fred

Sido - Sie bleibt


  D                    C# H                    A
e|5--5--5--5-|5--5--5--4-|2--2--2--2-|2--2--2----|
H|7--7--7--7-|7--7--7--6-|4--4--4--4-|4--4--4--5-|
G|7--7--7--7-|7--7--7--6-|4--4--4--4-|4--4--4--6-|
D|7--7--7--7-|7--7--7--6-|4--4--4--4-|4--4--4--7-|
A|5--5--5--5-|5--5--5--4-|2--2--2--2-|2--2--2--7-|
E|-----------|-----------|-----------|---------5-|

  C                       A
e|-----------|-----------|-----------|-----------|
H|3--3--3--3-|3--3--3--3-|5--5--5--5-|5--5--5--5-|
G|4--4--4--4-|4--4--4--4-|6--6--6--6-|6--6--6--6-|
D|5--5--5--5-|5--5--5--5-|7--7--7--7-|7--7--7--7-|
A|5--5--5--5-|5--5--5--5-|7--7--7--7-|7--7--7--7-|
E|3--3--3--3-|3--3--3--3-|5--5--5--5-|5--5--5--5-|


That's all
Tap to rate this tab
 
# A B C D E F G H I J K L M N O P Q R S T U V W X Y Z