Song name
# A B C D E F G H I J K L M N O P Q R S T U V W X Y Z

Sido - Bilder Im Kopf tab

Play through whole song (Barrй) :

 ---- G----F----F--C--Bb


E ----3----1----1--3--1-|
B ----3----1----1--5--3-|
G ----4----2----2--5--3-|
D ----5----3----3--5--3-|
A ----5----3----3--3--1-|
E ----3----1----1--X--X-|

Tab (played off-beat)

E ---------------------------------------|
B ---------------------------------------|
G --------------------------5--3---------|
D -----5------3------3-------------------|
A -------------------------3--1----------|
E ---3---(1)1---(1)1---------------------|


First tab!!
May be right, may be wrong...



Benderris
Tap to rate this tab
 
# A B C D E F G H I J K L M N O P Q R S T U V W X Y Z