Song name
# A B C D E F G H I J K L M N O P Q R S T U V W X Y Z

Sido - Einer Dieser Steine tab

Tab difficulty: intermediate    

        Hope you like it! No capo!

Intro & Vers 1&/2

----------0--|-------------|-------------|-----------1-|
-------------|-----------1-|--------0--1-|-----------0-|
--------2----|--------2----|-------------|-------------|
-------------|-----0-------|-----2-------|-------------|
-----3-------|-------------|--0----------|-------------|
--1----------|--3----------|-------------|-----------3-|


Part to Refrain

-------------|-------------|-------------|-------------|
-1-----------|--3----------|--1----------|--1----------|
-2-----------|--2----------|--2----------|--2----------|
-3-----------|--3----------|--2----------|--3----------|
-------------|-------------|-------------|-------------|
-------------|-------------|-------------|-------------|

Refrain

  ?    Fm   Am   Fm    G   Fm    Am  Fm   (C)
--3---|-1--|-0--|-1--|-3--|-1--|-0--|-1--|-0--|
--3---|-1--|-1--|-1--|-0--|-1--|-1--|-1--|-1--|
--3---|-1--|-2--|-1--|-0--|-1--|-2--|-1--|-0--|
--4---|-2--|-2--|-2--|-0--|-2--|-2--|-2--|-0--|
--5---|-3--|-0--|-3--|-0--|-3--|-0--|-3--|-2--|
--5---|-3--|-0--|-3--|-2--|-3--|-0--|-3--|-3--|
--3---|-1--|-0--|-1--|-3--|-1--|-0--|-1--|-0--|

Bridge
?, Fm, Am, Fm (2x)
        
Tap to rate this tab
 
# A B C D E F G H I J K L M N O P Q R S T U V W X Y Z