Song name
# A B C D E F G H I J K L M N O P Q R S T U V W X Y Z

Siege - Drop Dead tab

Siege 
Drop Dead

Tabbed by: Kapteeni Haddoc

Tuning: E standard

Intro
e--------------|
B--------------|
G--7-----------|
D--7--4--6--8--|
A--5--4--6--8--|
E-----2--4--6--|
Riff 1
e-----------------------------------------------------|
B-----------------------------------------------------|
G-----------------------------------------------------|
D-6666--8888--66666--8888--6666--8888--9999--10101010-|
A-6666--8888--66666--8888--6666--8888--9999--10101010-|
E-4444-6666--44444--6666--4444--6666--7777--8-8-8-8--|
Riff 2
e--------------------|
B--------------------|
G--------------------|
D-5-555555--6--7--8--|
A-5-555555--6--7--8--|
E3-333333--4--5--6--|
Riff 3
e-----------|
B-----------|
G-----------|
D--6--7--8--|
A--6--7--8--|
E-4--5--6--|
Riff 4
e--------------------------------------|
B--------------------------------------|
G--------------------------------------|
D--6666--8--6666--10--6666--8--6666--8-|
A--6666--8--6666--10--6666--8--6666--8-|
E-4444--6--4444--8---4444--6--4444--6-|

http://www.myspace.com/siegehardcore
http://en.wikipedia.org/wiki/Siege_%28band%29
Tap to rate this tab
# A B C D E F G H I J K L M N O P Q R S T U V W X Y Z