Song name
# A B C D E F G H I J K L M N O P Q R S T U V W X Y Z

Siekiera - Siekiera tab

Official Band Site http://siekiera.serpent.pl/

Siekiera
"Siekiera"

 # Riff 1 #

E||---------------------------------|| x8
H||---------------------------------||
G||---------------------------------||
D||-7---7---7---7---7---7---7---7---||
A||-5---5---5---5---5---5---5---5---||
E||---------------------------------||

 # Riff 2 #

E||---------------------------------|| x4
H||---------------------------------||
G||---------------------------------||
D||---------------------------------||
A||-5--------------8-------7--------||
E||-3--------------6-------5--------||

 # Riff 3 #

E||---------------------------------||
H||---------------------------------||
G||---------------------------------||
D||---------------------------------||
A||-5-5-5-5-5-5-5-5-8-8-8-8-7-7-7-7-||
E||-3-3-3-3-3-3-3-3-6-6-6-6-5-5-5-5-||

czy tu się głowy ścina
czy zjedli tu Murzyna
czy leży tu Madonna
czy tu jest jazda konna
siekiera

czy w nocy dobrze śpicie
czy śmierci się boicie
czy zabił ktoś tokarza
czy często się to zdarza
siekiera

 # Riff 2 #

E||---------------------------------|| x4
H||---------------------------------||
G||---------------------------------||
D||---------------------------------||
A||-5--------------8-------7--------||
E||-3--------------6-------5--------||

 # Riff 3 #

E||---------------------------------||
H||---------------------------------||
G||---------------------------------||
D||---------------------------------||
A||-5-5-5-5-5-5-5-5-8-8-8-8-7-7-7-7-||
E||-3-3-3-3-3-3-3-3-6-6-6-6-5-5-5-5-||

Siekiera
Tap to rate this tab
 
# A B C D E F G H I J K L M N O P Q R S T U V W X Y Z