Song name
# A B C D E F G H I J K L M N O P Q R S T U V W X Y Z

Siekiera - Burek Dobry Pies tab

Siekiera
"Burek Dobry Pies"

|---------------------|
|---------------------|
|---------------------|
|---------------------|
|-6-6--6-6--9--8--7---|
|-4-4--4-4--7--6--5---|

|-----------------|
|-----------------|
|-----------------|
|-----------------|
|-6-6-6-6-9-9-8-8-|
|-4-4-4-4-7-7-6-6-|

|--------------------------------|
|--------------------------------|
|--------------------------------|
|-6-6-6-6-6-6-6-6----------8-8---|
|-4-4-4-4-4-4-4-4-4-4-4-4--6-6---|
|-----------------2-2-2-2--------|

Zabij, ubij kiedy chcę
I Marysia, i ty Burek - me
Helu, Krysiu, utnij mi
Szczurek, Burek, gryź i ty - ty

Ty stara w budzie gnij,
Ty Burek przy niej śpij,
Ty stara kurwo gnij,
Ty Burek sraj jej w ryj,
Ty Burek dobry pies
Tap to rate this tab
 
# A B C D E F G H I J K L M N O P Q R S T U V W X Y Z