Song name
# A B C D E F G H I J K L M N O P Q R S T U V W X Y Z

Sielun Veljet - Peltirumpu tab

Artist: Sielun Veljet
Song: Peltirumpu
Tuning: Standard (EADGBe)

This song isn't very popular and I think it's only known in Finland, 
but it's also very good song. I'm quite sure that this is how they 
play it... and I think it's very easy song to learn! 
If you have any question about this tab, please send them to my email: musstikka@hotmail.com

Legend:
p = pull off
h = hammer on
b = bend
/... = tremolo and glissando up

Intro:

guitar 1: (play 3 times)
e|----------------------------------------------------|
B|----------------------------------------------------|
G|----------------------------------------------------|
D|----------------------------------------------------|
A|-4---4-4-4-4--4---4-4-4-4--4---4-4-4-4--4---4-4-4-4-|
E|-2---2-5p2-2--2---2-5p2-2--2---2-5p2-2--2---2-5p2-2-|
                                                      | 
guitar 2: (play 3 times)                              |
e|----------------------------------------------------|
B|----------------------------------------------------|
G|----------------------------------------------------|
D|-11-------------------------------------------------|
A|-9--------------------------------------------------|
E|----------------------------------------------------|


guitar 1:
e|----------------------------------------------------|
B|----------------------------------------------------|
G|----------------------------------------------------|
D|----------------------------------------------------|
A|-4---4-4-4-4--4---4-4-4-4--4/...--------------------|
E|-2---2-5p2-2--2---2-5p2-2--2/...--------------------|
                                                      |
guitar 2:                                             |
e|----------------------------------------------------|
B|----------------------------------------------------|
G|----------------------------------------------------|
D|-11----------11b(12)-------11b(13)------------------|
A|-9-----------9b(10)--------9b(11)-------------------|
E|----------------------------------------------------|


Riff A: 

guitar 1 & 2:
e|----------------------------------------------------|
B|----------------------------------------------------|
G|----------------------------------------------2-----|
D|-4-4-4-4---4--4-4-4-4---4--4-4-4-4---4--4-----2-----|
A|-4-4-4-4---4--4-4-4-4---4--4-4-4-4---4--4-----0-----|
E|-0h2-2-2---2--0h2-2-2---2--0h2-2-2---2--2-----------|

e|----------------------------------------------------|
B|----------------------------------------------------|
G|--------------------------------------------4---2---|
D|-4-4-4-4---4--4-4-4-4---4--4-4-4-4---4--4---4---2---|
A|-4-4-4-4---4--4-4-4-4---4--4-4-4-4---4--4---2---0---|
E|-0h2-2-2---2--0h2-2-2---2--0h2-2-2---2--2-----------|


Verse: 

only guitar 1:
e|----------------------------------------------------|
B|----------------------------------------------------|
G|----------------------------------------------------|
D|-4-4-4-4---4--4-4-4-4---4--4-4-4-4---4--4-4-4-4---4-|
A|-4-4-4-4---4--4-4-4-4---4--4-4-4-4---4--4-4-4-4---4-|
E|-0h2-2-2---2--0h2-2-2---2--0h2-2-2---2--0h2-2-2---2-|

e|----------------------------------------------------|
B|----------------------------------------------------|
G|----------------------------------------------------|
D|-4-4-4-4---4--4-4-4-4---4--4-4-4-4---4--4-----------|
A|-4-4-4-4---4--4-4-4-4---4--4-4-4-4---4--4-----------|
E|-0h2-2-2---2--0h2-2-2---2--0h2-2-2---2--2-----------|

e|----------------------------------------------------|
B|----------------------------------------------------|
G|----------------------------------------------------|
D|-4-4-4-4---4--4-4-4-4---4--4-4-4-4---4--4-4-4-4---4-|
A|-4-4-4-4---4--4-4-4-4---4--4-4-4-4---4--4-4-4-4---4-|
E|-0h2-2-2---2--0h2-2-2---2--0h2-2-2---2--0h2-2-2---2-|

e|----------------------------------------------------|
B|----------------------------------------------------|
G|----------------------------------------------------|
D|-4-4-4-4---4--4-4-4-4---4--4-4-4-4---4--4-----------|
A|-4-4-4-4---4--4-4-4-4---4--4-4-4-4---4--4-----------|
E|-0h2-2-2---2--0h2-2-2---2--0h2-2-2---2--2-----------|

e|----------------------------------------------------|
B|----------------------------------------------------|
G|---------------------------2b-----------------------|
D|-2-------------------------2b-----------------------|
A|-2-------------------------2b-----------------------|
E|-0--------------------------------------------------|

e|----------------------------------------------------|
B|----------------------------------------------------|
G|--------------------------------------------4---2---|
D|-4-4-4-4---4--4-4-4-4---4--4-4-4-4---4--4---4---2---|
A|-4-4-4-4---4--4-4-4-4---4--4-4-4-4---4--4---2---0---|
E|-0h2-2-2---2--0h2-2-2---2--0h2-2-2---2--2-----------|


  *Play Riff A*


e|----------------------------------------------------|
B|----------------------------------------------------|
G|----------------------------------------------------|
D|-4-4-4-4---4--4-4-4-4---4--4-4-4-4---4--4-4-4-4---4-|
A|-4-4-4-4---4--4-4-4-4---4--4-4-4-4---4--4-4-4-4---4-|
E|-0h2-2-2---2--0h2-2-2---2--0h2-2-2---2--0h2-2-2---2-|

e|----------------------------------------------------|
B|----------------------------------------------------|
G|----------------------------------------------------|
D|-4-4-4-4---4--4-4-4-4---4--4-4-4-4---4--4-4-4-4---4-|
A|-4-4-4-4---4--4-4-4-4---4--4-4-4-4---4--4-4-4-4---4-|
E|-0h2-2-2---2--0h2-2-2---2--0h2-2-2---2--0h2-2-2---2-|

e|----------------------------------------------------|
B|----------------------------------------------------|
G|--------------------------2b-------2----------------|
D|-4-4-4-4---4--2-----------2b-------2----------------|
A|-4-4-4-4---4--2-----------2b-------0----------------|
E|-0h2-2-2---2--0-------------------------------------|

e|----------------------------------------------------|
B|----------------------------------------------------|
G|----------------------------------------------------|
D|-4-4-4-4-4-4-4-4-4-4-4-4-4--------------------------|
A|-4-4-4-4-4-4-4-4-4-4-4-4-4--------------------------|
E|-2-2-2-2-2-2-2-2-2-2-2-2-2--------------------------|

Chorus: (play 2 times)

guitar 1 & 2:
Sä olet yk-sinäinen...
e|----------------------------------------------------|
B|----------------------------------------------------|
G|---------7--------4--------2------------------------|
D|---------7--------4--------2--------4--------2------|
A|---------5--------2--------0--------4--------2------|
E|------------------------------------2--------0------|

e|----------------------------------------------------|
B|----------------------------------------------------|
G|-6----------------2---2---6---6---6-----------------|
D|-6--------4---4---2---2---6---6---6-----------------|
A|-4--------4---4---0---0---4---4---4-----------------|
E|----------2---2-------------------------------------|

Bridge: (play 4 times)

e|----------------------------------------------------|
B|----------------------------------------------------|
G|----------------------------------------------------|
D|-4-4-------------------------------------------4--4-|
A|-4-4-------------------------------------------4--4-|
E|-0h2-------------------------------------------2--2-|

Play Intro

Play Riff A

Play Verse

Play Chorus

Outro: 

guitar 1 & 2:
e|----------------------------------------------------|
B|----------------------------------------------------|
G|--------------------------------------------4---2---|
D|-4-4-4-4---4--4-4-4-4---4--4-4-4-4---4--4---4---2---|
A|-4-4-4-4---4--4-4-4-4---4--4-4-4-4---4--4---2---0---|
E|-0h2-2-2---2--0h2-2-2---2--0h2-2-2---2--2-----------|

e|----------------------------------------------------|
B|----------------------------------------------------|
G|----------------------------------------------------|
D|-4-4-4-4---4--4-4-4-4---4--4-4-4-4---4--4---4-------|
A|-4-4-4-4---4--4-4-4-4---4--4-4-4-4---4--4---4-------|
E|-0h2-2-2---2--0h2-2-2---2--0h2-2-2---2--2---2-------|

Song ends

http://www.sielunveljet.com/index2.html
Tap to rate this tab
 
# A B C D E F G H I J K L M N O P Q R S T U V W X Y Z