Song name
# A B C D E F G H I J K L M N O P Q R S T U V W X Y Z

Sienna Skies - Commence tab

Well, there is only a little guitar
work involved with this song.
And it goes a little like this:

-----------------------------|
-----------------------------|
---8/9---9-6---8/9---9-6/8---|
-----------------------------|
-----------------------------|
-----------------------------|

-----------------------------|
-----------------------------|
---8/9---9-6---8/9---9-6/8---|
-----------------------------|
-----------------------------|
-----------------------------|

-----------------------------|
-----------------------------|
---8/9---9-6---8/9---9-6/8---|
-----------------------------|
-----------------------------|
-----------------------------|

-----------------------------|
-----------------------------|
---8/9---9-6---8/9---9-6/8---|
-----------------------------|
-----------------------------|
-----------------------------|

-----------------------------|
-----------------------------|
---8/9---9-6---8/9---9-6/8---|
-----------------------------|
-----------------------------|
-----------------------------|

-----------------------------|
-----------------------------|
---8/9---9-6---8/9---9-6/8---|
-----------------------------|
-----------------------------|
-----------------------------|

-----------------------------|
-----------------------------|
---8/9---9-6---8/9---9-6/8---|
-----------------------------|
-----------------------------|
-----------------------------|

-----------------------------|
-----------------------------|
---8/9---9-6---8/9---9-6/8---|
-----------------------------|
-----------------------------|
-----------------------------|


...etc
Tap to rate this tab
# A B C D E F G H I J K L M N O P Q R S T U V W X Y Z