Song name
# A B C D E F G H I J K L M N O P Q R S T U V W X Y Z

Sienna Skies - Breathe tab

the melody, deal with it:
there's a better way to play it, but it's a random unknown tuning so this is what you're 
to get. Have fun kiddies.

-----------------4---------|
--7----7----7----7---------|
--6----6----6----6---------|
--4----4----4----4---------|
---------------------------|
---------------------------|


---------------------------|
--7----7----6----6---------|
--6----6----6----6---------|
--4----4----4----4---------|
---------------------------|
---------------------------|

-----------------4---------|
--7----7----7----7---------|
--6----6----6----6---------|
--4----4----4----4---------|
---------------------------|
---------------------------|


---------------------------|
--7----7----6----6---------|
--6----6----6----6---------|
--4----4----4----4---------|
---------------------------|
---------------------------|


-----------------4---------|
--7----7----7----7---------|
--6----6----6----6---------|
--4----4----4----4---------|
---------------------------|
---------------------------|


---------------------------|
--7----7----6----6---------|
--6----6----6----6---------|
--4----4----4----4---------|
---------------------------|
---------------------------|
Tap to rate this tab
 
# A B C D E F G H I J K L M N O P Q R S T U V W X Y Z