Song name
# A B C D E F G H I J K L M N O P Q R S T U V W X Y Z

Sienna Skies - Amygdala tab

Amygdala
Sienna Skies
Truest of Colours

Standard tuning.
E A D G B e

--4---4-7--------4---4-7-4-2--2-2h4-4--|
----5-----5-4------5-------------------|
---------------------------------------|
---------------------------------------|
---------------------------------------|
---------------------------------------|

--4---4-7--------4---4-7-4-2--2-11h12-12--|
----5-----5-4------5----------------------|
------------------------------------------|
------------------------------------------|
------------------------------------------|
------------------------------------------|

So I've done all their soft songs,
will look into tabbing a heavy one...
Thinking about Part With Pride.
Cheers. Look at my other tabs.
Tap to rate this tab
 
# A B C D E F G H I J K L M N O P Q R S T U V W X Y Z