Sienna Skies - Breathe tab

Breathe-Sienna Skies

Standard Tuning 
Capo 2nd Fret

Guitar 1:

|--0--0000--0--0000--0--0000--0--0000--|
|--0--0000--0--0000--0--0000--0--0000--|
|--2--2222--2--2222--4--4444--4--4444--|
|--2--2222--2--2222--4--4444--4--4444--|
|--0--0000--0--0000--2--2222--2--2222--|
|--------------------------------------|

|--0--0000--0--0000--0--0000--0--0000--|
|--0--0000--0--0000--0--0000--0--0000--|
|--6--6666--6--6666--6--6666--6--6666--|
|--6--6666--6--6666--6--6666--6--6666--|
|--4--4444--4--4444--4--4444--4--4444--|
|--------------------------------------|

Guitar 2:

|--0--0000--0--0000--0--0000--0-22222--|
|--5--5555--5--5555--5--5555--5-55555--|
|--4--4444--4--4444--4--4444--4-44444--|
|--2--2222--2--2222--2--2222--2-22222--|
|--------------------------------------|
|--------------------------------------|

|--0--0000--0--0000--0--0000--0--0000--|
|--5--5555--5--5555--4--4444--4--4444--|
|--4--4444--4--4444--4--4444--4--4444--|
|--2--2222--2--2222--2--2222--2--2222--|
|--------------------------------------|
|--------------------------------------|

i just wanted to submit a tab for the part at 2:10 since no one had it(:
|-----------------------------0-------------0~----|
|--------------------------0----------------0~----|
|------1-------4-------8---------------1----4~----|
|----2--2----4--4----8--8---8--8-----0--2---4~----|
|---0-0--0--2-2--2--6-6--6---6--6---2-2--0--2~----|
|-------------------------------------------------|
Tap to rate this tab
 
# A B C D E F G H I J K L M N O P Q R S T U V W X Y Z