Song name
# A B C D E F G H I J K L M N O P Q R S T U V W X Y Z

Sienna Skies - Amygdala tab

Artist: Sienna Skies
Title: Amygdala
Album: Truest of Colours
Standard Tuning (E A D G B e)

|--4-4-7-4-2-2h4-4-4--7----------|
|---5-------------5----5-4~------|
|--------------------------------|
|--------------------------------|
|--------------------------------|
|--------------------------------|


|--4-4-7-4-2-2h4-4-4-7----11h12-|
|---5-------------5---5-4-------|
|-------------------------------|
|-------------------------------|
|-------------------------------|
|-------------------------------|


   so this is my first tab and i'm 99.9% sure it's accurate.
 feel free to leave comments about any mistakes you think i might
 have made or anything you think i should change. thanks!
Tap to rate this tab
 
# A B C D E F G H I J K L M N O P Q R S T U V W X Y Z