Song name
# A B C D E F G H I J K L M N O P Q R S T U V W X Y Z

Sienna Skies - Breathe tab

This song has a capo on the second fret.

The other tabs for this song sounded good but when the picked-out part came up, it 
didn't sound right to me so I tried my best and turned those into the chords I 
thought sounded more accurate.

e|---0-----0-----0-----0--|
B|---0-----0-----0-----0--|
G|---2-----4-----4-----4--|
D|---2-----1-----2-----2--|
A|---0-----2-----4-----4--|
E|------------------------|

And the little interlude thing:

e|----------------------------------------------------0-----|
B|---------------------------------------------4------------|
G|--------1-----------------------------4--------4------4---|
D|----2-----2-------1---2-1--------2------2--------2------2-|
A|--0---0-----0---2---2-----2----4---4------4---------------|
E|----------------------------------------------------------|
Tap to rate this tab
# A B C D E F G H I J K L M N O P Q R S T U V W X Y Z