Song name
# A B C D E F G H I J K L M N O P Q R S T U V W X Y Z

Sifl And Olly - Tina tab

Help us improve GuitareTab! Take a short survey!
intro:
e|--------------------------------------------------------------------------|
B|--------------------------------------------------------------------------|
G|-----8/6---------------------8/6------------------------------------------|
D|-0-0-8/6-3-5-8-7-7-7-3---0-0-8/6-3-5-8-7-7-7-3----------------------------|
A|-0-0-6/4-3-5-8-7-7-7-3---0-0-6/4-3-5-8-7-7-7-3----------------------------|
D|-0-0-----3-5-8-7-7-7-3---0-0-----3-5-8-7-7-7-3----------------------------|
          part a         |        part a

verse 1 (2 times)
e|--------------------------------------------------------------------------|
B|--------------------------------------------------------------------------|
G|--------------10-9-8-7-7-7-7----------------10-9-8-7-7-7-7----------------|
D|-7-7-9-7-9-7--10-9-8-7-7-7-7---7-7-9-7-9-7--10-9-8-7-7-7-7----------------|
A|-7-7-9-7-9-7--8--7-6-5-5-5-5---7-7-9-7-9-7--8--7-6-5-5-5-5----------------|
D|-7-7-9-7-9-7-------------------7-7-9-7-9-7--------------------------------|


Chorus:
(Intro but 'part a' play 3 times) and then :

e|--------------------------------------------------------------------------|
B|--------------------------------------------------------------------------|
G|-7-7-7-7-7-7-7-6-6-6-6-6-6-6-6--------------------------------------------|
D|-7-7-7-7-7-7-7-6-6-6-6-6-6-6-6--------------------------------------------|
A|-7-7-7-7-7-7-7-6-6-6-6-6-6-6-6--------------------------------------------|

+ 2 times 'part a'

Verse 2

Chorus

(Now it's the softest part of Tina)

& OUTRO (play 6 times)
intro:
e|--------------------------------------------------------------------------|
B|--------------------------------------------------------------------------|
G|--------------------------------------------------------------------------|
D|-0--5-3-2-1---------------------------------------------------------------|
A|-0--5-3-2-1---------------------------------------------------------------|
D|-0--5-3-2-1---------------------------------------------------------------|
Related for Tina tab