Guitaretab - guitar tabs
Song name
# A B C D E F G H I J K L M N O P Q R S T U V W X Y Z

Sigh - At My Funeral tab

Artist: Sigh
Album: Scorn Defeat (1993)

Standard Tuning

Riff 1a, pick every note 8 times per measure (not the chords). When the riff is played
with piano and keyboard don't play the chords.
e|-----------------------------------------|
B|-----------------------------------------|
G|-------------6---5-----------------------|
D|---------4-------------------5-4-3---2---|
A|-2---------------------------5-4-3---2---|
E|-----------------------------3-2-1---0---|


Play only riff 1a with piano and keyboard

Riff 1b, second verse. Guitar 1 play riff 1, guitar 2 plays:
e|-----------------------------------------|
B|-----------------------------------------|
G|---------4-------------------------------|
D|-------------4---3-----------5-4-3---2---|
A|-2---------------------------5-4-3---2---|
E|-----------------------------3-2-1---0---|

Play riff 1a with piano and keyboard

Riff 2a, play 2 times
e|------------------------------------------------------------------|
B|------------------------------------------------------------------|
G|------------------------------------------------------------------|
D|---------------------------------------------------5-4-5---5-4-5--|
A|---5-4-5---5-4-5---5-4-5---5-4-5---5-4-5---5-4-5-7-------6--------|
E|-7-------7-------6-------6-------7-------7------------------------|
   . . . . . . . . . . . . . . . . . . . . . . . . . . . . . . . .
[ Tab from: http://www.guitaretab.com/s/sigh/159697.html ]
Riff 2b, play 2 times
e|------------------------------------------------------------------|
B|------------------------------------------------------------------|
G|------------------------------------------------------------------|
D|---------------------------------------------------554455--554455-|
A|---554455--554455--554455--554455--554455--55445577------66-------|
E|-77------77------66------66------77------77-----------------------|

Riff 3
e|---------------------------------|
B|---------------------------------|
G|---------------------------------|
D|-9-------7-------6-------5---4---|
A|-9-------7-------6-------5---4---|
E|-7---5/7\5---4/5\4---3/4\3---2---|

Solo riff
e|----------------------------------------------------|
B|----------------------------------------------------|
G|--------------------------------------------14---14-|
D|-9~---11h12-11~---12h14-12--14/16--16-14-16----16---|
A|----------------------------------------------------|
E|----------------------------------------------------|

Riff 4
e|-----------------|
B|-----------------|
G|-----------------|
D|-----------------|
A|-----------------|
E|-7---5---4---6---|

Riff 5
e|----------------------------------------------------------------|
B|----------------------------------------------------------------|
G|----------------------------------------------------------------|
D|----------------------------------------------------------------|
A|-2-2-2-2-2-2-1-111-3-3-3----------------------------------------|
E|----------------------------------------------------------------|


Riff 6
e|------------------------------------------------------------------|
B|------------------------------------------------------------------|
G|------------------------------------------------------------------|
D|-------------------------3-------------------------------5--------|
A|-4-4-4-4-4-4-4-4-4-4-4-4-1-------2-2-2-2-2-2-2-2-2-2-2-2-3--------|
E|-2-2-2-2-2-2-2-2-2-2-2-2---------0-0-0-0-0-0-0-0-0-0-0-0----------|

Play riff 5
Play riff 6
Play riff 1a with piano and keyboard
Related for At My Funeral tab
×
At My Funeral