Song name
# A B C D E F G H I J K L M N O P Q R S T U V W X Y Z

Sigh - Die Hard tab

Artist: SIGH
Title: DIE HARD
Album: A TRIBUTE TO VENOM (2008)
Label: THE END RECORDS

Originally written and performed by VENOM.
Tabbed by Isaac Murguia (aka Goad).

Please comment and rate!
Suggestions for the missing parts are welcomed!

C# Standard Tuning (low to high: C#, F#, B, E, G#, C#)

. = palm mute
* = pinch harmonic

========

INTRO:
|----------------------------------------------------|
|----------------------------------------------------|
|----------------------------------------------------|
|-----5---7-------5---5-------7---5---7-6-5----------|
|-000-3-0-5---000-3-0-3---000-5-0-3---------7-6-5----|
|-------------------------------------------------8--| x3
  ...   .     ...   .     ...   .

|------------------------------------------------------|
|------------------------------------------------------|
|-------------------------------------------------10*--|
|-----5---7-------5---5-------7---5---7-6-5------------|
|-000-3-0-5---000-3-0-3---000-5-0-3---------7-6-5------|
|------------------------------------------------------|
  ...   .     ...   .     ...   .

VERSE:
|----------------------------------------------------|
|----------------------------------------------------|
|----------------------------------------------------|
|-----5---7-------5---5-------7---5---7-6-5----------|
|-000-3-0-5---000-3-0-3---000-5-0-3---------7-6-5----|
|-------------------------------------------------8--| x2
  ...   .     ...   .     ...   .

PRE-CHORUS:
|-----------------------------------------|
|------5----------4----------5------------|
|-5------5---4------4---5------5---4-4-4--|
|-5--5-------4--4-------5--5-------4-4-4--|
|-3----------2----------3----------2-2-2--|
|-----------------------------------------|


CHORUS (DIE HARD!):
                 x3                     x1
|------------------|----------------------|
|------------------|----------------------|
|-6--4--4-4-4-4-4--|-6--4--4-4-4-4-4-4-4--|
|-7--5--5-5-5-5-5--|-7--5--5-5-5-5-5-5-5--|
|-7--5--5-5-5-5-5--|-7--5--5-5-5-5-5-5-5--|
|-5--3--3-3-3-3-3--|-5--3--3-3-3-3-3-3-3--|


Repeat VERSE x4
Repeat PRE-CHORUS
Repeat CHORUS (DIE HARD!)


BRIDGE:
           x3                       x1
|------------|------------------------|
|------------|------------------------|
|------------|------------------------|
|-9--7--7-7--|-9--7-------------------|
|-7--5--5-5--|-7--5---9----8-9-10--9--|
|------------|--------7----6-7-8---7--|


Repeat VERSE x2


SOLO - PART A (sorry, can't figure it out)

SOLO - PART B
|---------------------|
|---------------------|
|---------------------|
|---------------------|
|---------------------|
|-0-----14--10--5--3--|

SOLO - PART C (can't figure this out either)


Repeat CHORUS (DIE HARD!)
Repeat VERSE x1


FILL:
|-----------------------------------------|
|-----------------------------------------|
|-----------------------------------------|
|-7-7---5-5---4-4---3-3-------------------|
|-5-5---3-3---2-2---1-1---5--55555555555--|
|-------------------------3--33333333333--|


Repeat PRE-CHORUS
Repeat CHORUS
Repeat VERSE x4

OUTRO:
  Guitar Lead (sorry, can't figure it out) :(
|---------------|
|---------------|
|---------------|
|---------------|
|---------------|
|---------------|
|
| Guitar Rhythm
|---------------|
|---------------|
|---------------|
|---------------|
|-5-------7-7---|
|-3-------5-5---|

THE END! NOW GO PLAY IT WITH YOUR GARAGE BAND!
Tap to rate this tab
 
# A B C D E F G H I J K L M N O P Q R S T U V W X Y Z