Song name
# A B C D E F G H I J K L M N O P Q R S T U V W X Y Z

Sighlo - Bluebird tab

Help us improve GuitareTab! Take a short survey!
Artist: Sighlo
Song: Bluebird
Album: Shattered Pieces

Tuning: CGCFAD

(/) Slide Up  (\) Slide Down  (h) Hammer On  (p) Pull Off  (b) Bend (r) Release (v) Vibrato

Im pretty sure these tabs are correct...cuz i wrote the song..ha ha...
Theres a few variations to these riffs in the intro/bridge and a layer of piano, 
but you get the jist

(intro/verse riff) Gtr.1 Vic

D|-------------------------------------|
A|-------------------------------------|
F|-----0-----0-----0-------0-------0---|
C|---5-----4-----2-------5-------7---0-|
G|-7-----5-----3-----2/3-----3/5-------|
C|-------------------------------------|


(intro melody) Gtr.2 Grim

D|----------15h17p15-------------|
A|----15-17----------15h17-15----|
F|-16-------------------------16-|
C|-------------------------------|
G|-------------------------------|
C|-------------------------------|


(verse melody) Grim

D|---------------------------|
A|---------------------------|
F|--5*---------9*--7*--------|    ALL NATURAL HARMONICS
C|-----5*---7*--------9*-----|        
G|---------------------------|
C|---------------------------|




(chorus) Vic
					                                         (2nd & 4th times)
D|--------------------------------------------|-----------------|
A|--------------------------------------------|-----------------|
F|--0-0-0-0-X-X-0-0--0--0--0-0-0-0-0--0--0-0--|--0-----0--------|
C|--5-5-5-5-X-X-7-9--4--2--2-2-2-2-4--4--4-4--|----4-----4---4--|
G|--7-7-7-7-X-X-9-10-5--3--3-3-3-3-5--5--5-5--|------5-----5----|
C|--------------------------------------------|-----------------|


(chorus) Grim

D|-------------------------------------------|
A|-------------------------------------------|
F|----------------------5--5-5-5-5-7--7--7-7-|
C|--2-2-2-2-X-X-7-5--0--5--5-5-5-5-7--7--7-7-|
G|--2-2-2-2-X-X-5-5--0--3--3-3-3-3-5--5--5-5-|
C|--2-2-2-2-X-X-4-5--0-----------------------|


(outro chorus melody) Vic


D|--------|-----------------|---------------------------------------------------|
A|--------|-----------------|---------------------------------------------------|
F|--0-0---|-555555-77777777-|-9999-xx-11-12-7-5555-12-12-12-12-11-11-11-11-7777-|
C|--5-4---|-xxxxxx-xxxxxxxx-|-xxxx-xx-x--x--x-xxxx-x--x--x--x--x--x--x--x--xxxx-|
G|--7-5---|-333333-55555555-|-7777-xx-9--10-5-3333-10-10-10-10-9--9--9--9--5555-|
C|--------|-----------------|---------------------------------------------------|

D|-----------------------------------------------------------|
A|-----------------------------------------------------------|
F|-9999-xx-11-12-7-5555-16-16-16-16-14-14-14-14-10-10-10-10--|
C|-xxxx-xx-x--x--x-xxxx-x--x--x--x--x--x--x--x--x--x--x--x---|
G|-7777-xx-9--10-5-3333-14-14-14-14-12-12-12-12-9--9--9--9---|
C|-----------------------------------------------------------|

D|----------------------------------------------------|
A|----------------------------------------------------|
F|-12-12-12-12-12-12--14-14-14-14-14-14--16-16-16-16--|
C|-x--x--x--x--x--x---x--x--x--x--x--x---x--x--x--x---|
G|-10-10-10-10-10-10--12-12-12-12-12-12--14-14-14-14--|
C|----------------------------------------------------|

D|----------------------------------------------------|
A|----------------------------------------------------|
F|-19-19-19-19-19-19--16-16-16-16-16-16--14-14-14-14--|
C|-x--x--x--x--x--x---x--x--x--x--x--x---x--x--x--x---|repeat these two riffs 2x
G|-17-17-17-17-17-17--14-14-14-14-14-14--12-12-12-12--|
C|----------------------------------------------------|



(ending) Vic
D|-----------------------|
A|-----------------------|
F|-9-9-9-9---11-12-7--5--|
C|-x-x-x-x---x--x--x--x--|
G|-7-7-7-7---9--10-5--3--|
C|-----------------------|


(ending) Grim
D|-----------------------|
A|-----------------------|
F|--------------------5--|
C|--2-2-2-2---7-5--0--5--|
G|--2-2-2-2---5-5--0--3--|
C|--2-2-2-2---4-5--0-----|

Tabz by Victorious...

Sighlo.com
myspace.com/sighlo
Related for Bluebird tab