Song name
# A B C D E F G H I J K L M N O P Q R S T U V W X Y Z

Sighlo - First Flaw tab

Artist: Sighlo
Song: First Flaw
Album: The Start
guitars 1 and 2
Drop C tuning - CGCFAD

(/)slide Up (\)slide Down (~)hold out the note (x)mute


intro - guitar 1 (strummed out)
D---------------------------------------------------------|
A-8(x16)--11(x3)--10(x3)----(x10)--11(x3)--10(x3)---(x10--|
F-------------------------10-----------------------8------|
c-5-------8-------7----------------8-------7--------------|
G-------------------------8------------------------6------|
C---------------------------------------------------------|

intro - guitar 1 continued
D--------------------------------|
A-11(x3)--10(x3)--13(x6)--6(x4)--|
F--------------------------------|
c-8-------7-------10------3------|
G--------------------------------|
C--------------------------------|
repeat

intro - guitar 2 (strummed out)
D--------------------------------------------------------|
A--------------------------------------------------------|
F--------------------------------------------------------|
c-8(x12)--10(x4)--5(x8)--0(x8)--1(x8)--1/3(x8)--3/5(x16)-|
G-8-------10------5------0------1------1/3------3/5------|
C-8-------10------5------0------1------1/3------3/5------|
repeat

verse - guitar 1
D---------------------------------------------------------|
A---------------------------------------------------------|
F----------------------------------------3(x8)------------|
c--------7------5-----10-----------------3-----3(x4)-5--1-|
G---5------5------3------8-7-------------1-----3-----5--1-|
C-0---00-----00-----0---------repeatx3---------3-----5--1-|
repeat x2

verse - guitar 2
D---------------------------------------------------------|
A---------------------------------------------------------|
F----------------------------------------3(x8)------------|
c---------------------7------------------3-----3(x4)-5--1-|
G------------------------5-3-------------1-----3-----5--1-|
C-0-0-0-0-0--0--000-0---------repeatx3---------3-----5--1-|

pre-chorus, part 1 - guitars 1 and 2
D------------------------------------------------------------|
A------------------------------------------------------------|
F-5-----7-----5-----7-----10---10-----------3(x8)------------|
c-5-0-0-7-0-0-5-0-0-7-0-0-10-0-10-----------3-----3(x4)-5--1-|
G-3-0-0-5-0-0-3-0-0-5-0-0-8--0-8------------1-----3-----5--1-|
C---0-0---0-0---0-0---0-0----0----repeatx3--------3-----5--1-|

pre-chorus, part 2 - guitars 1 and 2
D-------------------------------------------|
A-------------------------------------------|
F-5---------7---------10---10-----3---3-----|
c-5-0-0--00-7-0-0--00-10-0-10-000-3-0-3-----|
G-3-0-0--00-5-0-0--00-8--0-8--000-1-0-1-----|
C---0-0--00---0-0--00----0----000---0---1-0-|

pre-chorus, part 2 continued
D----------------------------------------------|
A----------------------------------------------|
F-5---------7---------10---10------3(x4)-------|
c-5-0-0--00-7-0-0--00-10-0-10-0000-3-----3(x4)-|
G-3-0-0--00-5-0-0--00-8--0-8--0000-1-----3-----|
C---0-0--00---0-0--00----0----0000-------3-----|

chorus - guitars 1 and 2
D-----------------------------------------------------------------|
A-----------------------------------------------------------------|
F------------------------9(x4)------------------------------------|
c-8(x8)-10(x4)-7-5/7(x8)-7----10(x4)-8(x8)-10(x4)-7-5/7(x8)-3(x8)-|
G-8-----8------5-3/5----------8------8-----8------5-3/5-----3-----|
C-8-----8----------------------------8-----8----------------3-----|

chorus continued
D--------------------------------------------------------------------|
A--------------------------------------------------------------------|
F------------------------9(x4)---------------------------------------|
c-8(x8)-10(x4)-7-5/7(x8)-7----10(x4)-8(x8)-10(x8)-77-7-7-55-5-5-5555-|
G-8-----8------5-3/5----------8------8-----8------55-5-5-33-3-3-3333-|
C-8-----8----------------------------8-----8-------------------------|

interlude - guitar 1
D-5(x16)----8(x8)-5(x8)-----------5(x16)----8(x8)-5(x8)-|
A-6---------6-----6---------------6---------6-----6-----|
F-7---------7-----8---------------7---------7-----8-----|
c-0---------5-----5---------------0---------5-----5-----|
G-0---------5-----5---------------0---------5-----5-----|
C-------------------------------------------------------|

interlude - guitar 2
D-------------------------------------------------|
A-------------------------------------------------|
F-------------------------------------------------|
c-0-00------0-00--0(volume swell)-0-00------0-00~-|
G-0-00------0-00--0---------------0-00------0-00~-|
C-0-00------0-00--0---------------0-00------0-00~-|


verse
pre-chorus, part 1
pre-chorus, part 2
chorus
intro


acoustic interlude - guitar 1
D-----------------------2--2-2--2-2-2-2--x-x----|
A-------------5-5-5-x-x-3--3-3--3-3-3-3--x-x----|
F-3--3--3-3-3/4-4-4-x-x-2--2-2--2-2-2-2--x-x----|
c-3--3--3-3-3/5-5-5-x-x-0--0-0--0-0-0-0--x-x----|
G-1--1--1-1-1/3-3-3-x-x-0--0-0--0-0-0-0--x-x----|
C-----------------------------------------------|

chorus - with beginning replaced by acoustic interlude
pre-chorus, part 1 - played 4 times

the end!

tabbed by Grimmytots and Victorious
PM with any questions...

sighlo.com
myspace.com/sighlo
Tap to rate this tab
# A B C D E F G H I J K L M N O P Q R S T U V W X Y Z