Song name
# A B C D E F G H I J K L M N O P Q R S T U V W X Y Z

Sigmund Groven - Flklypa Theme tab

Hello! I couldnt find any tab for this, so i tryed to tab it out myself!
 This is anyway what i hear and play with my guitar along with the track.

You can also play an octave lower if you find that easier, and
 two guitars playing together sounds great, one low and one high!

-------------------------------------------------------------------------------
			     Flåklypa theme - Sigmund Groven
-------------------------------------------------------------------------------
Tabbed by:Marcusmarkmus
Email:marcus_hayabusa@hotmail.com

Tuning:EADGBe

e|------17--19--20--19--17---------------------------------------------------|
B|---17---------------------20---17----------17--18--17---------------17-----|
G|-----------------------------------17--19--------------19---17--19------19-|
D|---------------------------------------------------------------------------|
A|---------------------------------------------------------------------------|
E|---------------------------------------------------------------------------|

e|------------------17--19---20--19--17--------------------------------------|
B|---------------17----------------------19--17-----------17-----------------|
G|--17--16~~--------------------------------------17--19------19--17--16-----|
D|---------------------------------------------------------------------------|
A|---------------------------------------------------------------------------|
E|---------------------------------------------------------------------------|

e|---------------------------------------------------------------------------|
B|---------------------------------------------------------------------------|
G|--14--13--14~~-------------------------------------------------------------|
D|---------------------------------------------------------------------------|
A|---------------------------------------------------------------------------|
E|---------------------------------------------------------------------------|

e|---------------------------------------------------------------------------|
B|--------22---20--18--17-----------------------17--18--17-------------------|
G|-------------------------17-------16--17--19---------------19--17~~--------|
D|--19-------------------------19--------------------------------------------|
A|---------------------------------------------------------------------------|
E|---------------------------------------------------------------------------|

e|---------------------------------------------------------------------------|
B|--------22---20--18--17-------------------------17--18--17-------17~~------|
G|-------------------------17--------16--17--19----------------19------------|
D|--19--------------------------19-------------------------------------------|
A|---------------------------------------------------------------------------|
E|---------------------------------------------------------------------------|


e|------17--19--20--19--17---------------------------------------------------|
B|---17---------------------20---17----------17--18--17---------------17-----|
G|-----------------------------------17--19--------------19---17--19------19-|
D|---------------------------------------------------------------------------|
A|---------------------------------------------------------------------------|
E|---------------------------------------------------------------------------|

e|------------------17--19---20--19--17--------------------------------------|
B|---------------17----------------------19--17-----------17-----------------|
G|--17--16~~--------------------------------------17--19------19--17--16-----|
D|---------------------------------------------------------------------------|
A|---------------------------------------------------------------------------|
E|---------------------------------------------------------------------------|

e|---------------------------------------------------------------------------|
B|---------------------------------------------------------------------------|
G|--14--13--14~~-------------------------------------------------------------|
D|---------------------------------------------------------------------------|
A|---------------------------------------------------------------------------|
E|---------------------------------------------------------------------------|


If you want it sounds quite cool to bend the 19th fret on the G-string when the next 
is the 17th fret B-string sometimes. Just suit yourselves! =)

Link to Sigmunds site: http://www.sigmundgroven.com/
Tap to rate this tab
 
# A B C D E F G H I J K L M N O P Q R S T U V W X Y Z