Song name
# A B C D E F G H I J K L M N O P Q R S T U V W X Y Z

Sigmund Groven - Flklypa tab

Flåklypa:


E |-0-5-7-8-7-5-3-0---------------------------------|
H |----------------------1-3-5-6-5-3-1-3-5-3-1-0----|
G |-------------------------------------------------|
D |-------------------------------------------------|
A |-------------------------------------------------|
E |-------------------------------------------------|

E |-0-5-7-8-7-5-3-0------------------------------------|
H |----------------------1-3-5-6-5-3-1-3-5-3-1-0-------|
G |----------------------------------------------2-1-2-|
D |----------------------------------------------------|
A |----------------------------------------------------|
E |----------------------------------------------------|


E |----5-3-1-0-------------1-0---0-----------------|
H |------------1-----0-1-3-----3-------------------|
G |-2------------2-2-------------------------------|
D |------------------------------------------------|
A |------------------------------------------------|
E |------------------------------------------------|


E |----5-3-1-0-------------1-0---0------------------|
H |------------1-----0-1-3-----3--------------------|
G |-2------------2-2--------------------------------|
D |-------------------------------------------------|
A |-------------------------------------------------|
E |-------------------------------------------------|

E |-0-5-7-8-7-5-3-0-----------------------------------|
H |----------------------1-3-5-6-5-3-1-3-5-3-1-0------|
G |----------------------------------------------2-1-2|
D |---------------------------------------------------|
A |---------------------------------------------------|
E |---------------------------------------------------|

Tap to rate this tab
# A B C D E F G H I J K L M N O P Q R S T U V W X Y Z