Song name
# A B C D E F G H I J K L M N O P Q R S T U V W X Y Z

Sigmund Groven - Reodors Ballade tab

---------------------------------------------------------------------------
                   Reodors ballade av Sigmund Groven
                  (Reodor's ballad by Sigmund Groven)
---------------------------------------------------------------------------

Tabbed by: Espen Myklebust
Email: snurresprettert@yahoo.no

This is the theme from the 1976 film Flåklypa Grand prix.
(http://www.imdb.com/title/tt0073000/)

It is originaly played on harmonica; in the film by Reodor Felgen when he's feeling down.
This is the harmonica part with bases (first one with bases here I think), but it is 
a part of symphony, see http://www.youtube.com/watch?v=j9j7ZdSac_o

Enjoy!

e|---5--7--8-7-----------------------------------------------|
B|-5------------10-8-----------------------------------------|
G|--------------------9------7-9--10-9------------9---7------|
D|-7------------------10--10---7--------12--10-12-10----10-9-|
A|------7-------8--10-------------------10-----------------7-|
E|-----------------------------------------------------------|

e|---5--7--8-7----------------------------------|
B|-5------------10-8----------------------------|
G|--------------------9------7-9--7-------------|
D|-7------------------10--10---7----10-9--7-6-7-|
A|------7-------8--10------------------7--------|
E|--------------------------------------------5-|

e|------s5--3-1-0---------------0--1--0-----------------|
B|-----------------1-----0-1-3-----------3--1-----0-----|
D|-s2-----------------2------------------------2----1-2-|
G|-s3---------------------------------------------------|
A|--------------0-----0------1--------------0-----------|
E|------------------------------------0-----------3-0-1-|

                                              [optional fill]
e|----s5--3-1-0---------------0--1--0-----0- -1p0--1p0-------|
B|---------------1-----0-1-3-----------3---- ----------3-1-0-|
G|------------------2----------------------- ----------------|
D|------------------------------------------ ----------------|
A|------------0-----0------1--------2------- ----------------|
E|----------------------------------------0- ----------------|

e|---5--7--8-7------------------------------------------------|
B|-5------------10-8------------------------------------------|
G|--------------------9------7-9--7-----------2-----2-s4-s6~~-|
D|-7------------------10--10---7----10-9--7-6----2------------|
A|------7-------8--10------------------7------0---------------|
E|------------------------------------------------------------|
Tap to rate this tab
 
# A B C D E F G H I J K L M N O P Q R S T U V W X Y Z