Song name
# A B C D E F G H I J K L M N O P Q R S T U V W X Y Z

Signal Hill - The Dead Vineyard tab

This is not my song, and this is my first tab. Everything sounds correct. Have fun 
playing this!
Hopefully later on I'll make the full length song tab. Enjoy!


e|----------------------------------------------------------------------------|
B|-------8-----------8--------------------------------------------------------|
G|---7-----7-----7-----7-----------11----------------11--------------9--------|
D|----------------------------12------12-------12-------12------12-----12-----|
A|-7---7-----7-7---7-----7----------------------------------------------------|
E|-------------------------10----10------10-10----10-------10-8----8------8-8-|

e|------------------------------------------|(x3)
B|------------------------------------------|
G|------9--------------9------9------9------|
D|-12-----12------12-----12-----12-----12---|
A|------------------------------------------|
E|----8------8-8-----8------8------8------8-|
Tap to rate this tab
# A B C D E F G H I J K L M N O P Q R S T U V W X Y Z