Guitaretab - guitar tabs
Song name
# A B C D E F G H I J K L M N O P Q R S T U V W X Y Z

Significant Figures - Euphoria tab


Tabbed by Dean Jacobs
e-3-3-3-2-2-2-3-3-3-3-3-3|-3-3-3-2-2-2-3-3-3-3-3-3|---- \
b-0-0-0-0-0-0-0-0-0-0-0-0|-0-0-0-0-0-0-0-0-0-0-0-0|  -- \
g-0-0-0-0-0-0-0-0-0-0-0-0|-0-0-0-0-0-0-0-0-0-0-0-0----- \   > X2 for intro
d-0-0-0-0-0-0-0-0-0-0-0-0|-0-0-0-0-0-0-0-0-0-0-0-0----- \   /
a-0-0-0-0-0-0-3-3-3-0-0-0|-0-0-0-2-2-2-3-3-3-0-0-0----- \ /
e-3-3-3-2-2-2-0-0-0-3-3-3|-3-3-3-0-0-0-0-0-0-3-3-3----- \

e-3-3-3-2-3-0-3-3-3-3-3-3-3-|---- \
b-0-0-0-0-0-0-0-0-0-0-0-0-0-|  -- \
g-0-0-0-0-0-0-0-0-0-0-0-0-0------ \   > X4 for each verse
d-0-0-0-0-0-0-0-0-0-0-0-0-0------ \   /
a-0-0-0-0-0-3-3-3-3-0-0-0-0------ \ /
e-3-3-3-3-3-0-0-0-0-0-3-0-0------ \

e-0-0-0-0-0-0-0-0-2-2-2-2-0-0-0-0|---- \
b-0-0-0-0-2-2-2-2-3-3-3-3-0-0-0-0|  -- \
g-0-0-0-0-2-2-2-2-2-2-2-2-0-0-0-0----- \   > X2 for each chorus
d-2-2-2-2-0-0-0-0-0-0-0-0-2-2-2-2----- \   /
a-2-2-2-2-0-0-0-0-0-0-0-0-2-2-2-2----- \ /
e-0-0-0-0-0-0-0-0-0-0-0-0-0-0-0-0----- \
[ Tab from: ]
e-3-3-3-3-3-3-3-3-3-3-3-3-3-3-3-3-3-3-3-3-3-3-3|---- \
b-0-0-0-0-0-0-0-0-0-0-0-0-0-0-0-0-0-0-0-0-0-0-0|  -- \
g-0-0-0-0-0-0-0-0-0-0-0-0-0-0-0-0-0-0-0-0-0-0-0----- \    > X1 for outro
d-0-0-0-0-0-0-0-0-0-0-0-0-0-0-0-0-0-0-0-0-0-0-0----- \  /
a-0-0-0-3-3-3-0-0-0-3-3-3-0-0-0-3-3-3-0-0-3-3-0----- \
e-3-3-3-0-0-0-3-3-3-0-0-0-3-3-3-0-0-0-3-3-0-0-3----- \

I just know that you think I?m wrong,
I?ve been with you for just so long,
So let?s cross over to the other side,
Coz there?s just one thing left in life to divide.

Yes I saw her,

Things in life can?t always be good,
But I did try to live life as much as I could,
Everyday people live and people die,
But you were the one who caught my eye.


People say sometimes that birds do sing,
People say sometimes that phone can ring,
But sometimes they are ignored,
Those smaller things in life when you are bored.


So we?ve crossed over to the other side,
It?s taken time but we have arrived,
We can start our lives from now,
But just before we will hear the sound.


Just crushed by words,
Related for Euphoria tab