Guitaretab - guitar tabs
Song name
# A B C D E F G H I J K L M N O P Q R S T U V W X Y Z

Significant Figures - Lighting Up The Shadows tab

What If
by Dean Jacobs
e-7-7-3-3-3-3-3-3-3-3-3|-7-7-3-3-3-0-0-0-3-3-3|---- \
b-0-0-0-0-0-0-0-0-0-0-0|-0-0-0-0-0-1-1-1-0-0-0|  -- \
g-0-0-0-0-0-0-0-0-0-0-0|-0-0-0-0-0-2-2-2-0-0-0----- \    >  X1 for intro
d-0-0-0-0-0-0-0-0-0-0-0|-0-0-0-0-0-2-2-2-0-0-0----- \   /    X2 for each verse
a-0-0-0-0-0-3-3-3-0-0-0|-0-0-0-0-0-0-0-0-3-3-3----- \ /
e-7-7-3-3-3-0-0-0-3-3-3|-7-7-3-3-3-0-0-0-0-0-0----- \
[ Tab from: ]
     Em     Am7          D             Em        Em    Am7            D            Em       \
e-0-0-0-0-0-0-0-2----2----2-0-0-0-0-0|-0-0-0-0-0-0-0-2----2----2-0-0-0-0-0|  |
b-0-0-0-2-2-2-2-3----3----3-0-0-0-0-0|-0-0-0-2-2-2-2-3----3----3-0-0-0-0-0|  |
g-0-0-0-2-2-2-2-2----2----2-0-0-0-0-0|-0-0-0-2-2-2-2-2----2----2-0-0-0-0-0|  |
d-2-2-2-0-0-0-0-0----0----0-2-2-2-2-2|-2-2-2-0-0-0-0-0----0----0-2-2-2-2-2|  |
a-2-2-2-0-0-0-0-0----0----0-2-2-2-2-2|-2-2-2-0-0-0-0-0----0----0-2-2-2-2-2|  |
e-0-0-0-0-0-0-0-0----0----0-0-0-0-0-0|-0-0-0-0-0-0-0-0----0----0-0-0-0-0-0|  |
             What             if the         world crashes        down.                      What          
if there?s    nothing more to    go around.        |
              > Chorus
      C       Am7          D             Em          C     Am7           D           Em           |
e-0-0-0-0-0-0-0-2----2----2-0-0-0-0-0|-0-0-0-0-0-0-0-2----2----2-0-0-0-0-0|   |
b-1-1-1-2-2-2-2-3----3----3-0-0-0-0-0|-1-1-1-2-2-2-2-3----3----3-0-0-0-0-0|   |
g-0-0-0-2-2-2-2-2----2----2-0-0-0-0-0|-0-0-0-2-2-2-2-2----2----2-0-0-0-0-0|   |
d-2-2-2-0-0-0-0-0----0----0-2-2-2-2-2|-2-2-2-0-0-0-0-0----0----0-2-2-2-2-2|   |
a-3-3-3-0-0-0-0-0----0----0-2-2-2-2-2|-3-3-3-0-0-0-0-0----0----0-2-2-2-2-2|   |
e-0-0-0-0-0-0-0-0----0----0-0-0-0-0-0|-0-0-0-0-0-0-0-0----0----0-0-0-0-0-0|   |
           What          if there?s      nothing more to         say.                       What      if 
                asked to                go away.      /

      What if,      What if,     What if.
e-7-7-3-3-7-7-3-3-7-7-3-3-7-7-15-15|----- \
b-0-0-0-0-0-0-0-0-0-0-0-0-0-0-0-0-0|  --- \
g-0-0-0-0-0-0-0-0-0-0-0-0-0-0-0-0-0------ \     > X1 for outro
d-0-0-0-0-0-0-0-0-0-0-0-0-0-0-0-0-0------ \   /
a-0-0-0-0-0-0-0-0-0-0-0-0-0-0-0-0-0------ \ /
e-7-7-3-3-7-7-3-3-7-7-3-3-7-7-15-15------ \

What is we try and we fail,
We?ll be put up for sale.
What if we live or die,
We?ll not see eye to eye.

What if the world crashes down,
What if there?s nothing left to go around,
What if there?s nothing more to say,
What if you?re asked to go away.

What if we lose the best,
We?ll be put up to the test.
What if we fail again,
It up to you that?s where it all depends.


What if we say that we won?t be there,
Aspirations, expectations, compensations, it just isn?t fair.
What if we love or die,
We?ll not see eye to eye.


What if,
What if,
What if.
Related for Lighting Up The Shadows tab