Guitaretab - guitar tabs
Song name
# A B C D E F G H I J K L M N O P Q R S T U V W X Y Z

Signs Of Hope - First And Foremost tab

-------------------------------------------------------------------------------
			     FIRST AND FOREMOST - Signs of Hope
-------------------------------------------------------------------------------
Tabbed by: Chris Nadell
Email: ceXhc@msn.com

http://signsofhopect.com/


Tuning: Standard (EADGBe)

  Verse
e|---------------|---------------|---------------|---------------|
B|---------------|---------------|---------------|---------------|
G|---------------|-9-9--9-9-9--9-|-5-5--5-5-5--5-|-7---------4---|
D|-2-2--2-2-2--2-|-9-9--9-9-9--9-|-5-5--5-5-5--5-|-7--7-7----4---| x2
A|-2-2--2-2-2--2-|-7-7--7-7-7--7-|-3-3--3-3-3--3-|-5--7-7----2---|
E|-0-0--0-0-0--0-|---------------|---------------|----5-5--------|

e|---------------|---------------|---------------|---------------|
B|---------------|---------------|---------------|--------8-8--8-|
G|-9-9--9-9-9--9-|-9-9--9-9-9--9-|-5-5--5-5-5--5-|-7-7--7-7-7--7-|
D|-9-9--9-9-9--9-|-9-9--9-9-9--9-|-5-5--5-5-5--5-|-7-7--7-5-5--5-| x2
A|-7-7--7-7-7--7-|-7-7--7-7-7--7-|-3-3--3-3-3--3-|-5-5--5--------|
E|---------------|---------------|---------------|---------------|

  Build Up
e|----------------|----------------|----------------|--------------------|
B|----------------|----------------|----------------|--------------------|
G|-9--------------|-------------9--|----------------|--------------------|
D|-9--9-9-9-9-9-9-|-9-9-9-9-9-9-9--|-2--------------|--------------------|
A|-7--7-7-7-7-7-7-|-7-7-7-7-7-7-7--|-2--2-2-2-2-2-2-|-2-2-2-2-2-2---2----|
E|----------------|----------------|-0--0-0-0-0-0-0-|-0-0-0-0-0-0---0----|
      * * * * * *   * * * * * *         * * * * * *   * * * * * *   *

  2-Step                                                   1.
e|-----------------|-----------------|--------------------|------------------|
B|-----------------|-----------------|--------------------|------------------|
G|--------------5--|--------------7--|-9------------9-----|-----9---------9--|
D|-2------------5--|-5------------7--|-9--9-9-9-9-9-9-9-9-|-9-9-9-9-9-9-9-9--| x2
A|-2--2-2-2-2-2-3--|-5--5-5-5-5-5-5--|-7--7-7-7-7-7-7-7-7-|-7-7-7-7-7-7-7-7--|
E|-0--0-0-0-0-0----|-3--3-3-3-3-3----|--------------------|------------------|
      * * * * *         * * * * *         * * * * *   * *   * *   * * * *

  2.
e|----------------------|
B|----------------------|
G|-----9-------11-12-11-|
D|-9-9-9-9-9-9-11-12-11-|
A|-7-7-7-7-7-7--9-10--9-|
E|----------------------|
   * *   * * *
[ Tab from: http://www.guitaretab.com/s/signs-of-hope/84895.html ]
  Bridge
e|----------|----------------------|----------|-----------------------|
B|----------|----------------------|----------|-----------------------|
G|-9--------|-11--11--11-12--11--7-|-5--------|-11--11--11-12--11--7--|
D|-9--------|-11--11--11-12--11--7-|-5--------|-11--11--11-12--11--7--|
A|-7--------|--9---9---9-10---9--5-|-3--------|--9---9---9-10---9--5--|
E|----------|----------------------|----------|-----------------------|

  Breakdown
e|-----15-14-15-14-----|-----15-14----17-14--|-----------------|-------------------------|
B|-----------------15--|-----------15--------|-----------------|-------------------------|
G|---------------------|---------------------|-5-5-5-5-5-5-5-5-|-------------------------|
D|---------------------|---------------------|-5-5-5-5-5-5-5-5-|-7-7-7-------------------|
A|-2-2-----------------|-2-2-----------------|-3-3-3-3-3-3-3-3-|-5-5-5-7-7-7-5-5-5-4-4-4-|
E|-0-0-----------------|-0-0-----------------|-----------------|-------5-5-5-3-3-3-2-2-2-|
   * *                   * *                                     * * * * * * * * * * * *

e|-----15-14-15-14-----|-----15-14----17-14--|-------------------------|--------------------|
B|-----------------15--|-----------15--------|-13-13-13-13-13-13-13-13-|-12-12-12-12-12-----|
G|---------------------|---------------------|--x--x--x--x--x--x--x--x-|--x--x--x--x--x--7--|
D|---------------------|---------------------|-10-10-10-10-10-10-10-10-|--9--9--9--9--9--7--|
A|-2-2-----------------|-2-2-----------------|-------------------------|-----------------5--|
E|-0-0-----------------|-0-0-----------------|-------------------------|--------------------|
   * *                   * *

e|----------------|----------------|--------------------|-------------------|
B|----------------|----------------|--------------------|-------------------|
G|-9------------5-|-(5)-4----------|--------------------|-------------4-5-7-|
D|-9--9-9-9-9-9-5-|-(5)-4--5--4--2-|-2------------2-----|-----2-------4-5-7-| x2
A|-7--7-7-7-7-7-3-|-(3)-2--5--4--2-|-2--2-2-2-2-2-2-2-2-|-2-2-2-2-2-2-2-3-5-|
E|----------------|--------3--2--0-|-0--0-0-0-0-0-0-0-0-|-0-0-0-0-0-0-------|
      * * * * *                         * * * * *   * *   * *   * * *

e|----------|
B|----------|
G|-9--------|
D|-9--------|
A|-7--------|
E|----------|


| *  Palm mute
| /  slide up
| \  slide down
| h  hammer-on
| p  pull-off
| ~  vibrato
| +  harmonic
| x  Mute note
===============================================================================