Song name
# A B C D E F G H I J K L M N O P Q R S T U V W X Y Z

Sigur Ros - Svefn-g-englar tab

piano part
100% correct


INTRO/VERSE

E|---------------------------------------|
B|---------------------------------------|
G|---(9)------7--6------(9)--------------| x4
D|------------------------------7-9------|
A|--7------5------------------0-----0----|
E|---------------------9-----------------|


WITH BOW

E|--------------------------------|
B|--------------------------------|
G|--------------------------------|
D|--------------------------------| REPEAT 
A|--------------------------------|
E|--/16---17---16---16/19---12---0|

Tap to rate this tab
# A B C D E F G H I J K L M N O P Q R S T U V W X Y Z