Guitaretab - guitar tabs
Song name
# A B C D E F G H I J K L M N O P Q R S T U V W X Y Z

Sigur Ros - Godan Daginn tab

Sigur Rs
Gan Daginn

Standard Tuning

This tab is a work in progress. I'll update it as i figure
it out but for now i only have a rough idea of how some of the parts go.

Intro
e-------------------|
B-------------------|
G------0-----0------|
D----0-----0-----0--|x4
A--9-----9-----9----|
E-------------------|

Verse
e--------------------------------------------------------|
B--------------------------------------------------------|
G------0-----0-----------0------0---------0-----0--------|
D----0-----0-----0-----0------0-----0---0-----0-----0----|
A--9-----9-----9---/12-----10-----9---9-----9-----9------|
E--------------------------------------------------------|

e--------------------------------------------------------|
G--------------------------------------------------------|
B------0-----0-----------0---------------0-----0---------|
D----0-----0-----0---0h4---4p0-4p0-----0-----0-----0-----|
A--7-----7-----7---5---------------/10-----9-----7-------|
E--------------------------------------------------------|

e-----------------------------------|
B-----------------------------------|
G--------0-------------0-----0------|
D----0h4---4p0-4p0---0-----0-----0--|2nd time lyrics come in
A--5---------------2-----4-----5----|
E-----------------------------------|

g sendi slina  ig
Sla sumardags
Grr hita stig
Og greikkar gngulag
Skn  andlitin hl
Fr alvru
Burt burt me ig sk
J, burtu t da

Prechorus(?)
*this part is hard to hear*
e---------------------------------------------------|
B---------------------------------------------------|
G------0-----0---------0-----0----------------------|
D----0-----0-----0---0-----0-----0-----0-----0------|
A--9-----9-----9---4-----5-----7-----4-----4-----4--|
E----------------------------------5-----5-----5----|
ar sem sjrinn flir

e--------------------------------------------------------|
B--------------------------------------------------------|
G------0-----0-----0-----0-----0-----0----------0-----0--|
D----0-----0-----0-----0-----0-----0-----0----0-----0----|
A--4-----5-----7-----9-----5-----5-----5---10-----9------|
E--------------------------------------------------------|
og saltsinn brir

e---------------------------------------|
B---------------------------------------|
G------------0-------------0-----0------|
D----0---0h4---4p0-4p0---0-----0-----0--|
A--7---5---------------2-----4-----5----|
E---------------------------------------|
Vi spilum endalaust

*Repeat prechorus, change in lyrics*

Burtu n afklum
Srinn opin grum
Vi spilum endalaust

Chorus
*the chorus is even harder to hear, i can't even be sure
that a guitar is played during it. In any case, i tabbed
out a vague riff and then a 2nd guitar can come in and
play the lower part*

Gtr 1
e------------------------------------------------------|
B------------------------------------------------------|
G-----------------------------------------0-----0------|
D-------0------0----------0-----0-------0-----0-----0--|
A-----0------0------0---4-----4-----4-9-----9-----9----|
E--12-----12-----12---5-----5-----5--------------------|

e--------------------------------------|
B--------------------------------------|
G-------0------0----------0-----0------|
D-----0------0------0---0-----0-----0--|
A--10-----10-----10---9-----9-----9----|
E--------------------------------------|

e----------------------------------------------------|
B----------------------------------------------------|
G-----------------------0-----0---------0-----0------|
D-------0-------0-----0-----0-----0---4-----4-----4--|
A-----0---0---4---4-9-----9-----7---5-----5-----5----|
E--12-------5----------------------------------------|

e------------------------------------------------------|
B------------------------------------------------------|
G-----------------------------------------0-----0------|
D-------0------0----------0-----0-------0-----0-----0--|
A-----0------0------0---4-----4-----4-9-----9-----9----|
E--12-----12-----12---5-----5-----5--------------------|

e----------------------|
B----------------------|
G-------0------0-------|
D-----0------0------0--|
A--10-----10-----10----|
E----------------------|
[ Tab from: http://www.guitaretab.com/s/sigur-ros/114219.html ]
e------------------------------------------------|
B------------------------------------------------|
G-----------------------0-----0---------0-----0--|
D-------0-------0-----0-----0-----0---4-----4----|
A-----0---0---4---0-9-----9-----7---5-----5------|
E--12-------5------------------------------------|

Gtr 2
e------------------------------------------------------|
B------------------------------------------------------|
G-----------------------------------------0-----0------|
D-------0------0----------0-----0-------0-----0-----0--|
A-----0------0------0---4-----4-----4-9-----9-----9----|
E--12-----12-----12---5-----5-----5--------------------|

e-----------------------------------|
B-----------------------------------|
G-----------------------------------|
D------0-----0---------0-----0------|
A----2-----2-----2---0-----0-----0--|
E--3-----3-----3---2-----2-----2----|

e----------------------------------------------------|
B----------------------------------------------------|
G----------------------------------------------------|
D-------0-------0-------0-----0---------0-----0------|
A-----0---0---4---4---0-----0-----0---2-----2-----2--|
E--12-------5-------2-----2-----2---3-----3-----3----|

e------------------------------------------------------|
B------------------------------------------------------|
G-----------------------------------------0-----0------|
D-------0------0----------0-----0-------0-----0-----0--|
A-----0------0------0---4-----4-----4-9-----9-----9----|
E--12-----12-----12---5-----5-----5--------------------|

e-------------------|
B-------------------|
G-------------------|
D------0-----0------|
A----2-----2-----2--|
E--3-----3-----3----|

e--------------------------------------|
B--------------------------------------|
G--------------------------------------|
D-------0-------0-------0-----0--------|
A-----0---0---4---0---0-----0-----0----|
E--12-------5-------2-----2-----2---3--|

Vi spilum endalaust
Slin strar
Byggir og sprengir ljsaperur
Lindar synti ????????? geislum hreinum

Play the intro once, and then

Bridge (x2)
e---------------------------------------------------|
B---------------------------------------------------|
G------0-----0---------0-----0---------0-----0------|
D----4-----4-----4---4-----0-----0---0-----0-----0--|
A--5-----5-----5---5-----7-----7---9-----9-----9----|
E---------------------------------------------------|

e------------------------------------------------------|
B------------------------------------------------------|
G-------0------0----------0-----0---------0-----0------|
D-----0------0------0---0-----0-----0---0-----0-----0--|
A--12-----12-----12---4-----4-----4---5-----5-----5----|
E------------------------------------------------------|
							   first ending
e---------------------|----------------------------------|
B---------------------|----------------------------------|
G-------0------0------|-----0-----0---------0-----0------|
D-----0------0------0-|---0-----0-----0---0-----0-----0--|
A--10-----10-----10---|-9-----9-----9---5-----5-----5----|
E---------------------|----------------------------------|
					   second ending
e---------------------|------------------|
B---------------------|------------------|
G-------0------0------|-----0-----0------|
D-----0------0------0-|---0-----0-----0--|
A--10-----10-----10---|-2-----4-----5----|
E---------------------|------------------|


, gan daginn
????? sjaka
og grlukertin
og ?????
og hendi t  haf
ar sem sjrinn flir
og saltsinn brir
Vi spilum endalaust

	Play chorus once after "Vi spilum endalaust"

Slin strar
Byggir og sprengir ljsaperur
Lindar synti
????????? baar geislum hreinum

	Then play this little riff before playing the chorus again.

e-----------------------------------------------|
B-----------------------------------------------|
G--18-------18-------16-------16-------14-------|
D-----0--------0--------0--------0--------0-----|
A--16--(16)-16--(16)-14--(14)-14--(14)-12--(12)-|
E-----------------------------------------------|

e----------------------------------------------------|
B----------------------------------------------------|
G--14--------12-------12-------11-----11-----9-------|
D-----0---------0--------0-------0------0------0-----|
A--12--(12)--10--(10)-10--(10)-9--(9)-9--(9)-7--(7)--|
E----------------------------------------------------|

e-----------------|
B-----------------|
G--9------9-------|
D----0------0-----|
A--7--(7)-7--(7)--|
E-----------------|

	Play chorus
Slin strar
Byggir og sprengir ljsaperur
Lindar synti
????????? baar geislum hreinum

Ratings/comments appreciated
Related for Godan Daginn tab