Guitaretab - guitar tabs
Song name
# A B C D E F G H I J K L M N O P Q R S T U V W X Y Z

Sigur Ros - Agaetis Byrjun tab

-------------------------------------------------------------------------------
			     gtis Byrjun  Sigur Rs
-------------------------------------------------------------------------------
Tabbed by: Claire Winter
Email: mr_Claire@hotmail.com

Tuning: EADGBE

Intro:
E|-----------------------------------------------------------------------|
B|-----------------------------------------------------------------------|
G|--------0-------0-------0-------0-------0-------0---------0-------0----|
D|------0-------0----0--0-------0----0--0-------0----0----0-----0h2---0--|
A|--3/5-----5-------5-3-----3-------3-2-----2-------2-2/3-----3----------|
E|-----------------------------------------------------------------------|

E|--------------------------------------------------------------------|
B|--------------------------------------------------------------------|
G|--------0-------0-------0------0-------0------0-------0-------0-----|
D|------0-------0----0--0------0----0--0------0----0--0-------0----0--|
A|--3/5-----5-------5-3-----3------3-5-----5------5-3-----3-------3---|
E|--------------------------------------------------------------------|

E|-------------------------------------------------------------------|
B|-------------------------------------------------------------------|
G|------0-------0-------0-------0-------0-------0-------0-----0------|
D|----0-------0----0--0-------0----0--0-------0----0--0-----0-----0--|
A|--5-----5-------5-3-----3-------3-2-----2-------2-3-----2-----3----|
E|-------------------------------------------------------------------|

E|-----------------------------------------|
B|-----------------------------------------|
G|--------0-------0---------0-------0------|
D|------0-----0h4---4-0---0-----0h2---0----| x2
A|--3/5-----5-----------3-----3---------3--|
E|-----------------------------------------|

E|------------------------------------------------------------------------|
B|------------------------------------------------------------------------|
G|--------0-------0---------0-------0---------0------0-------0-----0------|
D|------0-----0h4---4-0---0-----0h2---0-----0------0----0--0-----0-----0--|
A|--3/5-----5-----------3-----3---------3-2-----2------2-3-----2-----3----|
E|------------------------------------------------------------------------|


Main section:
                Bjartar Vonir Rtast         Er Vi Gngum Binn
E|--------------------------------------------------------------------|
B|--------------------------------------------------------------------|
G|--------0-------0-------0------0-------0------0-------0-------0-----|
D|------0-------0----0--0------0----0--0------0----0--0-------0----0--|
A|--3/5-----5-------5-3-----3------3-5-----5------5-3-----3-------3---|
E|--------------------------------------------------------------------|
             Brosum Og Hljum Glair
E|-------------------------------------------------------------------|
B|-------------------------------------------------------------------|
G|------0-------0-------0-------0-------0-------0-------0-----0------| x 2
D|----0-------0----0--0-------0----0--0-------0----0--0-----0-----0--|
A|--5-----5-------5-3-----3-------3-2-----2-------2-3-----2-----3----|
E|-------------------------------------------------------------------|

(Vintta Og reyta Mtast / Hldum Upp  Daginn / Og Fgnum Tveggja ra Bi)
[ Tab from: http://www.guitaretab.com/s/sigur-ros/24437.html ]
Second section:
             Fjarlgur Draumur Fist
E|--------------------------------------------------------------|
B|--------------------------------------------------------------|
G|------0------0-------0------0-------0-----0-------0-----------|
D|----0------0----0--0------0----0--0-----0----0--0------0---0--|
A|--7-----7------7-6-----6------6-2----2------2-5-----5----3----|
E|--------------------------------------------------------------|

E|------------------------------------------------------------------|
B|------------------------------------------------------------------|
G|------0------0-------0--------------0------0-------0-------0------|
D|----0------0----0--0------0---0---0------0----0--0-----0h4---4-0--|
A|--2-----2------2-5-----5----3---2-----2------2-5-----5------------|
E|------------------------------------------------------------------|

REPEAT MAIN SECTION

(Borum Og Drekkum Saddir / Og Borgum Fyrir Okkur / Me v Sem Vi Eigum  Dag / 
Niur Spenntir / Hlustum  Sjlfa Okkur Sl /  Takt Vi Tnlistina)

REPEAT SECOND SECTION

(a Virist Enginn Hlusta)


       etta Er Allt ruvsi             Vi Lifum  rum Heimi
E|----------------------------------------------------------------|
B|----------------------------------------------------------------|
G|------0------0-------0------0-------0------0-------0------0-----|
D|----0------0----0--0------0----0--0------0----0--0------0----0--|
A|--5-----5------5-3-----3------3-7-----7------7-3-----3------3---|
E|----------------------------------------------------------------|

                   ar Sem Vorum Aldrei snileg
E|----------------------------------------------------------------|
B|----------------------------------------------------------------|
G|------0------0-------0------0-------0------0-------0------0-----|
D|----0------0----0--2------2----2--2------2----2--2------2----2--|
A|--2-----2------2-0-----0------0-3-----3------3-3-----3------3---|
E|----------------------------------------------------------------|

E|-------------------------------------|
B|-------------------------------------|
G|------0------0-------0-----0---------|
D|----0------0----0--0-----0--------0--|
A|--2-----2------2-3-----2------2h3----|
E|-------------------------------------|


REPEAT MAIN SECTION

(Nokkrum Dgum Sar / Vi Tlum Saman  N / En Hlji Var Ekki Gott / Vi Vorum 
Um a / Sammla Um Flesta Hluti / Vi Munum Gera Betur Nst)


             etta Er gtis Byrjun
E|---------------------------------------------------------------|
B|---------------------------------------------------------------|
G|------0------0-------0------0-------0-----0-------0-----0------|
D|----0------0----0--0------0----0--0-----0----0--0-----0-----0--|
A|--7-----7------7-6-----6------6-2----2------2-3-----2-----3----|
E|---------------------------------------------------------------|

Outro:
E|-----------------------------------------------------|
B|-----------------------------------------------------|
G|-------0-----0---------0------0---------0-----0------|
D|-----0-----0-----0---0------0-----0---0-----0--------| x6
A|--10-----8-----6---5-----5------5---3-----2-----3-/--|
E|-----------------------------------------------------|

E|-------------------------------------|
B|-------------------------------------|
G|-------0-----0---------0------0------|
D|-----0-----0-----0---0------0-----0--|
A|--10-----8-----6---5-----5------5----|
E|-------------------------------------|

E|---------------------------------------------------------------------|
B|---------------------------------------------------------------------|
G|------0-------0-------0-------0-------0-------0---------0-----0------|
D|----0----0--0----0--2----2--0----0--0-----0h2---0--0--0-----0-----0--|
A|--3-----3-2-----2-0-----0-2-----2-3-----3---------3-3-----3-----3----|
E|---------------------------------------------------------------------|

End on a strummed G chord:

E|--3--|
B|--3--|
G|--0--|
D|--0--|
A|--2--|
E|--3--|
Related for Agaetis Byrjun tab