Guitaretab - guitar tabs
Song name
# A B C D E F G H I J K L M N O P Q R S T U V W X Y Z

Sigur Ros - The Nothing Song tab


e:---------------0-------------|
B:---------1--------1---1------|
G:------2-----2-------2--------|    X2
D:---3-------------------------|
A:-----------------------------|
E:-----------------------------|


e:---------------0-----------------|
B:---------1--------1---1---0-0---3|
G:------2-----2-------2------0-0---|   
D:---------------------------------|
A:---3-----------------------------|
E:---------------------------------|


e:---------------0-------------|
B:---------1--------1---1------|
G:------2-----2-------2--------|    X2
D:---3-------------------------|
A:-----------------------------|
E:-----------------------------|


e:---------------0---------------|
B:---------1--------1---1--3--5--|
G:------2-----2-------2----------|   
D:-------------------------------|
A:---3---------------------------|
E:-------------------------------|


e:--------------13--12---------|
B:-----------13--------13------|
G:-----------------------------|
D:------14---------------------|
A:---15------------------------|
E:-----------------------------|


e:-----------------------------|
B:-----------13--12------------|
G:--------------------12-------|
D:------14---------------------|
A:---15------------------------|
E:-----------------------------|


e:--------------13--12---------------------|
B:-----------13-----------15----12--13--15-|
G:-----------------------------------------|
D:------14---------------------------------|
A:---15------------------------------------|
E:-----------------------------------------|


repeat until the end...

sergio roberto vazquez guerra form durango, dgo. M?xico




[ Tab from: http://www.guitaretab.com/s/sigur-ros/24440.html ]
Related for The Nothing Song tab