Sigur Ros - Hoppipolla tab

Band: Sigur Rós
Song: Hoppipolla
Album: Takk

This is a version for the ukulele in standar tuning :) GCEA (with a high G)

Intro:

(part 1)

|-----------5--|-----------5--|-----------5--|-----------5--|
|-----3--------|-----3--------|-----3--------|-----3--------|
|--4-----------|--4-----------|--2-----------|--2-----------|
|--------5-----|--------5-----|--------5-----|--------5-----|

|-----------5--|-----------5--|-----------5--|-----------5--|
|-----3--------|-----3--------|-----3--------|-----3--------|
|--0-----------|--0-----------|--2-----------|--2-----------|
|--------5-----|--------5-----|--------5-----|--------5-----|

(part 2)

|-----------5--|-----------7--|-----------7--|--8--7--3-----|
|-----3--------|-----3--------|-----3--------|--------------|
|--4-----------|--5-----------|--5-----------|--------------|
|--------5-----|--------5-----|--------5----5|--0--------0--|

|-----------7--|--8--7--3-----|-----------5--|-----------5--|
|-----3--------|--------------|-----3--------|-----3--------|
|--5-----------|--------------|--5-----------|--5-----------|
|--------5----5|--0--------0--|--------5-----|--------5-----|

(play part 2 of the intro 2 times or more)

(Chords for the verse and chorus)

|0003| C
|2010| F
|0232| G
|5500| Cmaj7


C             F
Brosandi
                   C
Hendumst í hringi
                  F
Höldumst í hendur
          G
Allur heimurinn óskýr
            Cmaj7
Nema tú stendur

Rennblautur
Allur rennvotur
Engin gúmmístígvél
Hlaupandi inn í okkur
Vill springa út úr skel

Vindurinn
Og útilykt af hárinu þínu
Eg lamdi eins fast og ég get
Með nefinu mínu


                                              Hop-pi-po-
|-----------5--|-----------5--|-----------5--|-----------5--|
|-----3--------|-----3--------|-----3--------|-----3--------|
|--4-----------|--4-----------|--2-----------|--2-----------|
|--------5-----|--------5-----|--------5-----|--------5-----|

-lla

Cmaj7


(Hoppípolla
I engum stígvélum
Allur rennvotur (rennblautur))


You play the first half of (part 1) in the intro when starting off the chorus, ending 
with a Cmaj7.

*Repeat*

And for the last part .. it's just like the verses, only with more power .. but the same 
chord and strumming pattern



Enjoy :)
Tap to rate this tab
 
# A B C D E F G H I J K L M N O P Q R S T U V W X Y Z