Song name
# A B C D E F G H I J K L M N O P Q R S T U V W X Y Z

Sigur Ros - Njosnavelin Acoustic tab

Njosnavelin (The Nothing Song) Acoustic. Video : http://www.youtube.com/watch?v=CAVNcgzYKFo

I've only tabbed the intro, but these riffs are repeated throughout most of the song.



   F                                       C

-----------1--------0---------------------------------------0-----------------|
-------1-------1-----------(1)-------------------0h1----3-------(3)-----------|
-----2---2---2----2------------(2)-------------0------------------------------|
---3-------------------------------(3)-------2--------------------------------|
-------------------------------------------3----------------------------------|
------------------------------------------------------------------------------|




   F                                       C

-----------1--------0---------------------------------------------------------|
-------1-------1-----------(1)-------------------0h1----0---------------------|
-----2---2---2----2------------(2)-------------0------------0-----------------|
---3-------------------------------(3)-------2--------------------------------|
-------------------------------------------3----------------------------------|
------------------------------------------------------------------------------|




   F

-----------1--------0---------------------------------------------------------|
-------1-------1-----------3~~~~~~--------------------------------------------|
-----2---2---2----2-----------------------------------------------------------|
---3--------------------------------------------------------------------------|
------------------------------------------------------------------------------|
------------------------------------------------------------------------------|
Tap to rate this tab
# A B C D E F G H I J K L M N O P Q R S T U V W X Y Z