Song name
# A B C D E F G H I J K L M N O P Q R S T U V W X Y Z

Sigur Ros - Andvari tab

Sigur Ros - Andvari
-----------------------------------------------------------------
Andvari  Sigur Ros
-----------------------------------------------------------------
Tabbed by: Pete Alexander
Email: jock333@hotmail.com
Tuning: Standard

There are basically 3 variations of the same guitar sequence all the way through.  Just 
listen out for the subtle changes in the track.

Var 1.

E|---------------------------------------------------------------|
B|---2--------2--------2--------2--------2--------2--------------|
G|-----2--------2--------2--------2--------2--------1------------|
D|-------2--------2--------2--------2--------2--------2----------|
A|---------------------------------------------------------------|
E|---------------------------------------------------------------|

E|---------------------------------------------------------------|
B|---2--------2--------2--------2--------2--------2--------------|
G|-----2--------2--------2--------2--------2--------2------------|
D|-------2--------4--------4--------4--------0--------0----------|
A|---------------------------------------------------------------|
E|---------------------------------------------------------------|

E|---------------------------------------------------------------|
B|---2--------2--------2--------2--------2--------2--------------|
G|-----2--------2--------2--------2--------2--------1------------|
D|-------2--------4--------4--------4--------2--------2----------|
A|---------------------------------------------------------------|
E|---------------------------------------------------------------|


Var 2.

E|---------------------0-----------------------------------------|
B|---2--------3-----------------3--------2--------2--------------|
G|-----2--------2--------2--------2--------2--------1------------|
D|-------2--------2--------2--------2--------2--------2----------|
A|---------------------------------------------------------------|
E|---------------------------------------------------------------|

E|---------------------------------------------------------------|
B|---2--------2--------2--------2--------2--------2--------------|
G|-----2--------2--------2--------2--------2--------2------------|
D|-------2--------4--------4--------4--------0--------0----------|
A|---------------------------------------------------------------|
E|---------------------------------------------------------------|

E|---------------------------------------------------------------|
B|---2--------2--------2--------2--------2--------2--------------|
G|-----2--------2--------2--------2--------2--------1------------|
D|-------2--------4--------4--------4--------2--------2----------|
A|---------------------------------------------------------------|
E|---------------------------------------------------------------|

Var 3.

E|---------------------0-----------------------------------------|
B|---2--------3-----------------3--------2--------2--------------|
G|-----2--------2--------2--------2--------2--------1------------|
D|-------2--------2--------2--------2--------2--------2----------|
A|---------------------------------------------------------------|
E|---------------------------------------------------------------|

E|---------------------------------------------------------------|
B|---2--------2--------3--------3--------2--------3--------------|
G|-----2--------2--------2--------2--------2--------2------------|
D|-------2--------4--------4--------4--------0--------0----------|
A|---------------------------------------------------------------|
E|---------------------------------------------------------------|

E|---------------------------------------------------------------|
B|---2--------2--------2--------2--------2--------2--------------|
G|-----2--------2--------2--------2--------2--------1------------|
D|-------2--------4--------4--------4--------2--------2----------|
A|---------------------------------------------------------------|
E|---------------------------------------------------------------|

This is my first tab and Im no musician so there may be mistakes but its somewhere 
near.  Sounds ok playing along to the track.
Tap to rate this tab
 
# A B C D E F G H I J K L M N O P Q R S T U V W X Y Z