Song name
# A B C D E F G H I J K L M N O P Q R S T U V W X Y Z

Sigur Ros - Fljotavik tab

intro
e|---------------------------------------------------------------------------|
B|--------------------------------------8-9-9-8------------------------------|
G|---------------------------------------------------------------------------|
D|--6---6---8---8-10-10-8---6---6---8----------------------------------------|
A|--3---4---6---6----6------3---4---6---6------------------------------------|
E|---------------------------------------------------------------------------|
verse                 pre-chorus
e|-------------------------------------6-8-8-6---------6---------------------|
B|--9--9--8--8-9-9-8----------9--9--8------------9--9-----9-8----------------|
G|------------------------------------------------------------8--------------|
D|---------------------------------------------------------------------------|
A|--------6--6-6-6-6----------------6--6-6-6-6---------6---------------------|
E|--8--9----------------------8--9---------------8--9------------------------|
chorus (chords):   or random picking of B and e according to the chords e.g.:
e|--8-----4-----8-----6---------------- ---8-8-8-6-8-6-----6-9-8-etc --------|
B|--9-----6-----9-----8---------------- ---9-----------9-9-------------------|
G|--10----6-----10----8---------------- -------------------------------------|
D|--10----6-----10----8---------------- -------------------------------------|
A|--8-----4-----8-----6---------------- -------------------------------------|
E|------------------------------------- -------------------------------------|
ending with X 8 10 10 9 8
Tap to rate this tab
 
# A B C D E F G H I J K L M N O P Q R S T U V W X Y Z