Guitaretab - guitar tabs
Song name
# A B C D E F G H I J K L M N O P Q R S T U V W X Y Z

Sigur Ros - Untitled 4 Njosnavelin tab

Band: Sigur Ros
Song: Track #4/Njósnavélin
Tabber: Dane H.
Tuning: Standard (EADGBE)


I tabbed this from the Craig kilborn performance and some from http://www.hafssol.co.uk/html/().htm

ok for this song your gonna need a bow, also use a lot of rosin on your strings, you
will also need reverb turn that up almost all the way, and a delay pedal, your going
to have to fingerpick for this song since it will be easier switching from your bow
to your picking.

For the bow parts you going to have to find out the rythem for that yourself

Email comments and stuff to Farewell_july@yahoo.com


Intro:


Intro each is played one time:


e-------------------------------|
B----------1------------1----0--|
G--------2----------------------|
D------3--------------2---------|
A-------------------3-----------|
E-------------------------------|

e---------------------------------|
B--------1------------1----3------|
G------2--------------------------|
D----3--------------2-------------|
A------------------3--------------|
E---------------------------------|


e-----------------------------------------------|
B----------1------------1----0------------1-----|
G--------2------------------------------2-------|
D------3--------------2---------------3---------|
A-------------------3---------------------------|
E-----------------------------------------------|

e-----------------|
B-----1----3s5----|
G-----------------|
D---2-------------|
A-3---------------|
E-----------------|


e--------------------------------------------------------------|
B----------1-----------1----0-----------1-----1------3---5-----|
G--------2----------------------------2-----0--------0---------|
D------3-------------2--------------3-----2----------0---------|
A------------------3-------------------------------------------|
E--------------------------------------------------------------|


e------------13--12----------------------------------|
B---------13-----------------------13---12---8-------|
G----------------------------------------------------|
D------15-----------------------14-------------------|
A----------------------------15----------------------|
E----------------------------------------------------|


e------------13--12---------------------------|
B---------13---------------------13---15--17--|
G---------------------------------------------|
D------15---------------------14--------------|
A--------------------------15-----------------|
E---------------------------------------------|


e------------13--12--------------------------------|
B---------13--------------------13---12--8---------|
G--------------------------------------------------|
D------15--------------------14--------------------|
A-------------------------15-----------------------|
E--------------------------------------------------|

[ Tab from: http://www.guitaretab.com/s/sigur-ros/47722.html ]
e------------13--12-----------------|
B---------13-------------------13---|
G-----------------------------------|
D------15-------------------14------|
A------------------------15---------|
E-----------------------------------|


Verse x2

e--------------------------------------------------------------|
B----------1-----------1----0-----------1-----1------3---5-----|
G--------2----------------------------2-----0--------0---------|
D------3-------------2--------------3-----2----------0---------|
A------------------3-------------------------------------------|
E--------------------------------------------------------------|


Then this:  X2

e------------13--12-------------------------|
B---------13--------------------13---12---8-|
G-------------------------------------------|
D------15--------------------14-------------|
A-------------------------15----------------|
E-------------------------------------------|

e----------13--12-------------------------|
B-------13---------15-------12--12--13----|
G-----------------------------------------|
D----15-----------------------------------|
A-----------------------------------------|
E-----------------------------------------|


OK then the bow part 1, its really simple

just play this X2


D------10----------10-------------12---|
A------10----------10-------------12---|
E-------8-----------8-------------10---|


then go back to this fingerpicking:X1

e------------13--12-------------------------|
B---------13--------------------13---12---8-|
G-------------------------------------------|
D------15--------------------14-------------|
A-------------------------15----------------|
E-------------------------------------------|

e----------13--12-------------------------|
B-------13---------15-------12--12--13----|
G-----------------------------------------|
D----15-----------------------------------|
A-----------------------------------------|
E-----------------------------------------|


Then play this bow part 2:X2

e-------------------------------------|
B-------------------------------------|
G-------------------------------------|
D----10------15---14-----12---14--12--|
A----10------15---14-----12---14--12--|
E----8-------13---12-----10---12--10--|

Then back to bow part 1 (8,10) X2


THen back to:X2

e------------13--12-------------------------|
B---------13--------------------13---12---8-|
G-------------------------------------------|
D------15--------------------14-------------|
A-------------------------15----------------|
E-------------------------------------------|

e----------13--12-------------------------|
B-------13---------15-------12--12--13----|
G-----------------------------------------|
D----15-----------------------------------|
A-----------------------------------------|
E-----------------------------------------|


REST...

Then Back to bow part 2(8,13,12,10,12,10) until the end....
Related for Untitled 4 Njosnavelin tab