Song name
# A B C D E F G H I J K L M N O P Q R S T U V W X Y Z

Sigur Ros - Njosnavelin tab

                         ****Sigur Ros****
                         ***Njosnavelin***
                         *******( )*******


heres what i play:

          F              C
e|---------------------------------------------------------------------|
B|---------1---------------1-------------1-----------1---3---3/5-------|
G|-------2---------------0-------------2---------------0---0-----------|
D|-----3---------------2-------------3------------2--------------------|
A|---0---------------3--------------------------3----------------------|
E|---------------------------------------------------------------------|




im not sure if this parts right:

e|--------13----12---------8--7/3-3--------13----12---10--------10----|
B|-----10--------------8----------------10----------------12-13-------|
G|--10-------10------9---9-----------10-------10----------------------|
D|--------------------------------------------------------------------|
A|--------------------------------------------------------------------|
E|--------------------------------------------------------------------|

BEAUTIFUL SONG!!!



Essil on 
Essil on erifet al 
Essil on 
Essil on eriftel al 
Essil on

(I travelled through light) 
(I travelled through light; I am not afraid)

(In this lake of souls) 
(In this lake of souls, I lose all fear)


Their are no actual lyrics to this song. Jónsi just sings gibberish that fits with the
music. The Sigur Ros website had a contest to see who could transcribe, translate,
andinterpret the songs lyrics. The lyrics above are the winners interpretation.


http://www.sigur-ros.co.uk/
Tap to rate this tab
# A B C D E F G H I J K L M N O P Q R S T U V W X Y Z