Song name
# A B C D E F G H I J K L M N O P Q R S T U V W X Y Z

Sigur Ros - Hopppolla tab

Sigur Rós
Takk...
Hoppípolla

Tab de Edwin Hernández
edyeudiel@hotmail.com

INTRO

E|---6-8---6-8---6-8---6-8---6-8---6-8---6-8---6-8--|
B|--6-----6-----6-----6-----6-----6-----6-----6-----|
G|-7-----7-----5-----5-----------------5-----5------|
D|-------------------------8-----8------------------|
A|--------------------------------------------------|
E|--------------------------------------------------|

E|---6-8---6-9---6-10-6-11-10-6----6-10-6-11-10-6---|
B|--6-----6-----6--------------6--6--------------6--|
G|-7-----7-----5-----------------5------------------|
D|--------------------------------------------------|
A|--------------------------------------------------|
E|--------------------------------------------------|

E|---6-8---6-8---6-10-6-11-10-6----6-10-6-11-10-6---|
B|--6-----6-----6--------------6--6--------------6--|
G|-------------5-----------------5------------------|
D|-8-----8------------------------------------------|
A|--------------------------------------------------|
E|--------------------------------------------------|
Tap to rate this tab
 
# A B C D E F G H I J K L M N O P Q R S T U V W X Y Z