Song name
# A B C D E F G H I J K L M N O P Q R S T U V W X Y Z

Sigur Ros - Heysatan tab

    [intro] check song for tempo.

E|-----7~---------------------------------------|
B|-------------5~-------3~-------8~-------7~----|
G|-----4~------0~-------0~-------9~-------7~----|  X 4
D|----------------------------------------------|
A|-------------3~-------2~-------7~-------5~----|
E|-----3~---------------------------------------|



   [verse] Heysátan  ...

E|----------------------7~------------------------------|
B|-----8~------7~----------------5~-------3~------7~----|
G|-----9~------7~-------4~-------0~-------0~------7~----|  X 3
D|------------------------------------------------------|
A|-----7~------5~----------------3~-------2~------5~----|
E|----------------------3~------------------------------|





   [chorus] heyvag á massey ferguson... [check song for strumming]

       G  am7  Em Bm   C  Bm   C   D    G  G#F Em  Bm   C  Bm   C  G#F Bm  Em

E|-----3---0---0---2---0---2---0---2----3---2---0---2---0---2---0---2---2---0-----|
B|-----3---1---0---3---1---3---1---3----3---3---0---3---1---3---1---3---3---0-----|
G|-----0---0---0---4---0---4---0---2--------2---0---4---0---4---0---2---4---0-----|
D|-----0---2---2---4---2---4---2---0--------0---2---4---2---4---2---0---4---2-----|
A|-----2---0---2---2---3---2---3---0----2-------2---2---3---2---3-------2---2-----|
E|-----3-----------2-------2------------3---2-------2-------2-------2---2---------|


     [outro]                         [pause]    

E|----------------------7~----------------------------------|
B|-----8~------7~----------------5~-----------3~------7~----|
G|-----9~------7~-------4~-------0~-----------0~------7~----|  X 1 
D|----------------------------------------------------------|
A|-----7~------5~----------------3~-----------2~------5~----|
E|----------------------3~----------------------------------|
Tap to rate this tab
 
# A B C D E F G H I J K L M N O P Q R S T U V W X Y Z