Guitaretab - guitar tabs
Song name
# A B C D E F G H I J K L M N O P Q R S T U V W X Y Z

Sigur Ros - Heima tab

----------------------------------------------------------------------------
			     Heima Ė Sigur Růs
----------------------------------------------------------------------------
Tabbed by: Claire Winter
Email: mr_Claire@hotmail.com

Tuning: EADABE

This isnít exactly how they play the song on the DVD, but it sounds close enough. The 
play it with three guitars - iíve tried to include the bass notes as well as the two 
melodies, so apologies if itís a bit busy.

The only alternate tuning is the G String up to an A. Any questions, comments etc, to 
at mr_Claire@hotmail.com. Thanks!


Intro:
E|-------0--------0-------0-------0-------0-------0----|
B|--10-------10-------9-------9-------5-------5--------|
A|-----0---0----0---0---0---0---0---0---0---0---0---0--|
D|--11----------------9--------------------------------|
A|-----------------------------------------------------|
E|-----------------------------------------------------|

E|-------0--------0-------0-------0-------0------------|
B|--10-------10-------9-------9-------5-------3---2----|
A|-----0---0----0---0---0---0---0---0-4-4---0---0---0--|
D|--11----------------9--------------------------------|
A|--9--------9--------7-------7-------0-------2---0----|
E|-----------------------------------------------------|

First section:
E|-------0--------0-------0-------0-------0-------0----|
B|--10-------10-------9-------9-------5-------5--------|
A|-----0---0----0---0---0---0---0---0---0---0---0---0--|
D|--11----------------9--------------------------------|
A|--9----0---9----0---7---0---7---0---4---0---4---0----|
E|-----------------------------------------------------|

E|-------0--------0-------0-------0-------0------------|
B|--10-------10-------9-------9-------5-------3---2----|
A|-----0---0----0---0---0---0---0---0---4---0---0---0--|
D|--11----------------9--------------------------------| x 2
A|--9----0---9----0---7---0---7---0---0---0---2---0----|
E|-----------------------------------------------------|

[ Tab from: http://www.guitaretab.com/s/sigur-ros/99255.html ]
Link:
E|-------0--------0--------0--------0--------0--------0----|
B|--10-------10-------12-------12-------14-------14--------|
A|-----0---0----0---0----0---0----0---0----0---0----0---0--|
D|--11----------------14----------------11-----------------|
A|--9----0----9---0---11---0---11---0---12---0---12---0----|
E|---------------------------------------------------------|


Repeat first section.


Second section:
E|------0-------0-------0-------0--------0--------0--------0--------0---|
B|--7-------7-------9-------9-------10-------10-------12-------14-------|
A|----0---0---0---0---0---0---0---0----0---0----0---0----0---0----0---0-|
D|--7---------------9---------------11----------------14-------11-------| x3
A|--5---0---5---0---7---0---7---0---9----0---9----0---11---0---12---0---|
E|----------------------------------------------------------------------|

E|------0-------0-------0-------0----|
B|--7-------7-------9-------9--------|
A|----0---0---0---0---0---0---0---0--|
D|--7---------------9----------------|
A|--5---0---5---0---7---0---7---0----|
E|-----------------------------------|

Repeat first section (x3).

Repeat second section but replace last bar with:

E|------0-------0-------0-------0--------0--------0--------0--------0---|
B|--7-------7-------9-------9-------10-------10-------12-------12-------|
A|----0---0---0---0---0---0---0---0----0---0----0---0----0---0----0---0-|
D|--7---------------9---------------11----------------14-------14-------|
A|--5---0---5---0---7---0---7---0---9----0---9----0---11---0---11---0---|
E|----------------------------------------------------------------------|
    (softly)
E|-------0--------0--------0--------0----|------0-------0----|
B|--14-------14-------14-------14--------|--2-------3--------|
A|-----0---0----0---0----0---0----0---0--|----0---0---0---0--|
D|--11-----------------------------------|--2-------4--------|
A|--12-------12-------12-------12--------|--0-------2--------|
E|---------------------------------------|-------------------|

Repeat second section and end on:

E|-----|
B|--2--|
A|-----|
D|--2--|
A|--0--|
E|-----|
Related for Heima tab