Guitaretab - guitar tabs
Song name
# A B C D E F G H I J K L M N O P Q R S T U V W X Y Z
Home / S / Sik / Ashley tab

Sik - Ashley tab

Pete Schmidt - Ashley
Tabbed by Randy Zwitch
comments@peteschmidttabs.com

Capo 2

(1)
e---------2---3---2-0-----------------|-----2--3--2--0-------|
b---------0---0---0-0----0h3--0-------|-----0--0--0--0----0--|
g---------0---0---0-0----0----2-------|-----0--0--0--0----0--|
d---2--------------------2----0--(x3)-|--2----------------2--|
a---2--------------------3----2-------|--2----------------3--|
E---0---------------------------------|--0-------------------|
[ Tab from: http://www.guitaretab.com/s/sik/62594.html ]
(2)
e----------------2--3--2--0---------|---------------|
b--0--3--0-------0--0--0--0---------|---0----3------|
g--0--0--0---0---0--0--0--0---------|---0----2------|
d--2--2--2---2----------------(x3)--|---2----0------|
a--3--3--3---2----------------------|---3----x------|
E------------0----------------------|--------2------|

(3)                  (4)
e-----------------|---0-------0-----------|
b---3--3--(3)--3--|---0---0---0---0-------|
g---0--0---0---2--|---2---0---2---0-------|
d---2--x---2---0--|---2---0---0---0--(x2)-|
a---3--2---2---x--|---0---2---x---2-------|
E----------0---2--|-------3---2---3-------|
Related for Ashley tab