Guitaretab - guitar tabs
Song name
# A B C D E F G H I J K L M N O P Q R S T U V W X Y Z
Home / S / Sik / Trevor tab

Sik - Trevor tab

-------------------------------------------------------------------------------
			     Trevor - The Filaments
-------------------------------------------------------------------------------
Tabbed by: Ronnie-b
Email:

Tuning: EADGBE
Intro/main riff (Repeat whole intro section twice)

e|-----------------------|  X6
B|--2---0----------------|
G|----------2------------|
D|-----------------------|
A|-----------------------|
E|-----------------------|
e|-----------------------|  X1
B|--2/3\2--0-----0-2-----|
G|------------2----------|
D|-----------------------|
A|-----------------------|
E|-----------------------|
[ Tab from: http://www.guitaretab.com/s/sik/83933.html ]
Intro/verse rhythm guitar (repeat each chord 8 times palm muting on verse. open on intro)

e|-----------------|
B|-----------------|
G|-----9--6--7-----|
D|--7--9--6--7-----|
A|--7--7--4--5-----|
E|--5--------------|

Chorus (repeat each chord 8 times, last chord only played once)

e|-----------------------------------------|
B|-----------------------------------------|
G|-----9-----7-----9-----------7-----------|
D|--7--9--7--7--7--9---7-------7--------7--|
A|--7--7--7--5--7--7---7-------5--(x4)--7--|
E|--5-----5-----5------5--(x4)----------5--|


| /  slide up
| \  slide down
| h  hammer-on
| p  pull-off
| ~  vibrato
| +  harmonic
| x  Mute note
===============================================================================
Related for Trevor tab
Advertisement will be closed in 10 seconds