Song name
# A B C D E F G H I J K L M N O P Q R S T U V W X Y Z

Sikth - Where Do We Fall tab

Band: Sikth
Song: Where Do We Fall?
Album: Death of a Dead Day
Tuning: Drop C#   C#,G#,C#,F#,A#,D#

00:15-00:21
Palm Mute, and eventually strum regular.
D#|-----------------|
A#|-----------------|
F#|-----------------| X3 
C#|-4-4-4-4-4-4-4-4-|
G#|-2-2-2-2-2-2-2-2-|
C#|-----------------|

00:21-00:45
D#|-------------------5---5-----|--------------------------------------|
A#|------12----12-------7---7---|--------------------------------------|
F#|---11----11----------------7-|-----0---0----------------------------|
C#|-9--------------0------------|---4---4---4--5--7----5---5---5-------|
G#|-9--------------0------------|-2------------------5---5---5---12-11-|
C#|-9--------------0------------|-2------------------5-----------12-11-|

The end varies the 2nd and 4th time it's repeated, sorry I don't have that part.
Tap to rate this tab
# A B C D E F G H I J K L M N O P Q R S T U V W X Y Z