Song name
# A B C D E F G H I J K L M N O P Q R S T U V W X Y Z

Sikth - Bland Street Bloom tab

Band : SikTh
Song : Bland Street Bloom (intro)
Album : Death Of aa Dead Day
Tuning: Drop C (C,G,C,F,A,D)
Tabbed by: Robert Sanderson

This is probably of the best album i have ever heard and this song is one of my
out of all off the songs on that album.
I thought i would try and tab this because ive watched people playing this song on
like youtube and alot of people ask for the tab so i thought i would help some people 
by at least giving them the intro.

Key:
H = Hammer On
P = Pull Off
R = Right Hand Tap
L = Left Hand Tap
Fb = Fullbend


|-----------------------------------------------|
|-----------------------------------------------|
|-----------------------------------------------|
|-------------------------------------------0---|
|-3-2-0-0-1-0-0-3--2--3-3-0-1-0-3-1-1-1-1-1-0-1-|
|-3-2-0-0-1-0-0-3--2--3-3-0-1-0-3-1-1-1-1-1---1-|

|-----------------|
|--0h2h3----------|
|-------0h2h3-----|
|-----------------|
|-----------------|
|-----------------|

|-----------------------------------------------|
|-----------------------------------------------|
|-----------------------------------------------|
|-------------------------------------------0---|
|-3-2-0-0-1-0-0-3--2--3-3-0-1-0-3-1-1-1-1-1-0-1-|
|-3-2-0-0-1-0-0-3--2--3-3-0-1-0-3-1-1-1-1-1---1-|

   
|--------------------R--L-L-----|
-|---------R--L-L----13-7-4-----|
|-R--L-L---11-2-5---------------|
|-10-2-4------------------------|
|-------------------------------|
|-------------------------------|

|-------------------------------------------|
|-------------------------------------------|
|-------------1-----------------------------|
|-------------1-----------------------------|
|-3-2-2-2-2-2-1-0-3-2-2-2-0-3-0-3-2-0-4fb---|
|-3-2-2-2-2-2---0-3-2-2-2-0-3-0-3-2-0-4fb---|

|-----------------------------------------------|
|-----------------------------------------------|
|-----------------------------------------------|
|-------------------------------------------0---|
|-3-2-0-0-1-0-0-3--2--3-3-0-1-0-3-1-1-1-1-1-0-1-|
|-3-2-0-0-1-0-0-3--2--3-3-0-1-0-3-1-1-1-1-1---1-|

the timing for all the notes is kinda tricky but once you have that down its fairly
Tap to rate this tab
 
# A B C D E F G H I J K L M N O P Q R S T U V W X Y Z