Song name
# A B C D E F G H I J K L M N O P Q R S T U V W X Y Z

Sikth - In This Light tab

Help us improve GuitareTab! Take a short survey!
Sikth - In This Light

Guitar Solo (02:36 - 02:53)

Transcribed by Fi1ip




eb|----------------------------------------------------|---------------------------|
Bb|--------------13-13s15-13----13-15s18-17-15-17------|---------------------------|
Gb|--14p12----14-------------16-------------------17~--|-s12-9----9----9-----------|
Db|--------15------------------------------------------|-------12---10---10--------|
Ab|----------------------------------------------------|--------------------10-12--|
Db|----------------------------------------------------|---------------------------|
              

eb|--12-----------------------------|--------------------------------17-15-13-------|
Bb|-----13-------------12-15-13-12--|--13-12-10--15-13-12--17-15-13------------13~--|
Gb|--------14-9----9----------------|-----------------------------------------------|
Db|-------------12------------------|-----------------------------------------------|
Ab|---------------------------------|-----------------------------------------------|
Db|---------------------------------|-----------------------------------------------|


eb|----------8--b18------|----------------17--b22-22~--|------------------------------19--|
Bb|----------------------|-----------------------------|--b17-17-15-----------------------|
Gb|------9----------16~--|--------12-------------------|------------17-16-b19-19-17-16----|
Db|----7---9-------------|-----14----------------------|----------------------------------|
Ab|-10-------------------|--12-------14-15-------------|----------------------------------|
Db|----------------------|-----------------------------|----------------------------------|


eb|---------------------------------------------|
Bb|---------------------------------------------|
Gb|---------------------------------------------|
Db|--s14p12-------------------------------------|
Ab|---------15--14h15p14--12-s7-----------------|
Db|---------------------------------------------|



Related for In This Light tab