Song name
# A B C D E F G H I J K L M N O P Q R S T U V W X Y Z

Silbermond - Das Ende Vom Kreis tab

e-|------------------------------------------------------------------|
h-|------------------------------------------------------------------|
g-|------------------------------------------------------------------|
D-|---2h4--4-4-4--2h4--4-----2h4--4-4-4--2h4-----7-----7------4------|
A-|-2--------------------2-2-----------------2/5---5-4---4-(2)------|
E-|------------------------------------------------------------------|

e-|------------------------------------------------------------------|
h-|------------------------------------------------------------------|
g-|------------------------------------------------------------------|
D-|-2h4---2h4--4-4-4--2h4--4-----2h4--4-4-4--2h4-----7-----7/9-9-----|
A-|-----2--------------------2-2-----------------2/5---5-4-------7/9-|
E-|------------------------------------------------------------------|
Tap to rate this tab
# A B C D E F G H I J K L M N O P Q R S T U V W X Y Z