Song name
# A B C D E F G H I J K L M N O P Q R S T U V W X Y Z

Silbermond - Nach Haus tab

e----------------------     |-----------------------|-------------------|
b----------------------     |-5-5-5-----------------|-5-5-5-------------|
g---------------------- 4x  |--------6-7---7-7-7-6--|--------6-7-7p6----|
d----------------------     |----------------------7|-----------------7-|
a----------------------     |-----------------------|-------------------|
E---5-5-5-5-5-5-5-5-5--     |-----------------------|-------------------|


Rest des Songs ist eine wiederholung des Riffs. Die Kleine Variation bei Minute 1.36-1.40 ist;

e--------------------|
b-5-5-5--------------|
g-------6-7----------|
d------------6-6-6-7-|
a--------------------|
E--------------------|
Tap to rate this tab
# A B C D E F G H I J K L M N O P Q R S T U V W X Y Z