Song name
# A B C D E F G H I J K L M N O P Q R S T U V W X Y Z

Silbermond - Alles Gute chords

Highlighted       Show chord diagrams
Silbermond - Alles Gute
Album: Nichts passiert

e-mail: avrill_xx@yahoo.com

capo: 3rd fret

INTRO (= riff verses)
 D
e|--3-3-3-3--2-2-2-2-2-2-2-2-|
B|--3-3-3-3--3-3-3-3-3-3-3-3-|
G|--2-2-2-2--2-2-2-2-2-2-2-2-|
D|--0-0-0-0--0-0-0-0-0-0-0-0-|
A|---------------------------|
E|---------------------------|
  Bm
e|--3-3-3-3--2-2-2-2-2-2-2-2-|
B|--2-2-2-2--3-3-3-3-3-3-3-3-|
G|--2-2-2-2--2-2-2-2-2-2-2-2-|
D|--4-4-4-4--4-4-4-4-4-4-4-4-|
A|--2-2-2-2--2-2-2-2-2-2-2-2-|
E|---------------------------|


D
Irgendetwas fehlt und lässt dich taumeln
Tag für Tag
Bm
Du willst weitergehen
Doch weißt nicht
wie lange du das noch schaffst
D
Und du sehnst dich so
nach diesem einen Atemzug
Bm
Der dich am Leben lässt                 D
Und dir sagt, dass alles hier vergessen ist
         Bm
Und alles bis hierher
         Em
Zählt ab heut nichts mehr
                          G
Denn alles Gute liegt vor dir
                      D
Alles Gute liegt vor dir

D
Alles wird anders sein
und deine Wunden heilen auch
Bm
Gib dir ein bisschen Zeit
sie legt Zuversicht darauf
D
Lass Wind in deine Segel
und lauf auf zu neuen Wegen
Bm
Gestern war noch nichts und niemand hier
                                   D
Und jetzt eine ganze Legion hinter dir
         Bm
Und alles bis hierher
         Em
Zählt ab heut nichts mehr
                          G
Denn alles Gute liegt vor dir
                      D
Alles Gute liegt vor dir

Em G Bm A  G Em Bm A G

e|-3-2-------------|
B|-----2-3--3-2-3--|
G|-----------------|
D|-----------------|
A|-----------------|
E|-----------------|

D  G D

G                     A
Alles Gute liegt vor dir
                     Bm
Alles Gute liegt vor dir
                     D
Alles Gute liegt vor dir
                     G
Alles Gute liegt vor dir
                     A
Alles Gute liegt vor dir
                  Bm
Alles wird gut ab hier
Alles wird gut ab hier
                      
Denn alles Gute liegt 

G A Bm A  G Em Bm A D
vor dir 
Tap to rate this tab
 
# A B C D E F G H I J K L M N O P Q R S T U V W X Y Z