Song name
# A B C D E F G H I J K L M N O P Q R S T U V W X Y Z

Silbermond - Irgendwas Bleibt tab

Irgendwas bleibt
Silbermond

Da vermutlich ohnehin nur deutschsprachige Kollegen die TABs fuer dieses
Lied suchen, verzichte ich auf das hier uebliche Englisch und schreibe in
Deutsch.
Das nachfolgende TAB entspricht der Live-Version des Auftritts im Rahmen
der Echo-Verleihung 2009 (YouTube macht's moeglich). Die Studioversion
kennt das Intro nicht, da beginnt der Song gleich mit dem Gesang.

Hier die wichtigsten Gitarrenparts

Intro
[leicht palm muted]
    E                  E
E|------------------|------------------|
H|------------------|------------------|
G|--9-9-9-9-9-9-9-9-|--9-9-9-9-9-9-9-9-|
D|--9-9-9-9-9-9-9-9-|--9-9-9-9-9-9-9-9-|
A|--7-7-7-7-7-7-7-7-|--7-7-7-7-7-7-7-7-|
E|--0-0-0-0-0-0-0-0-|--0-0-0-0-0-0-0-0-|


Introriff A
    E                  F#m               G#m      A          E
E|------0-----0-----|------0-----0-----|------0-----0-----|------0-----0-----|
H|----0-----0-------|----0-----0-------|----0-----0-------|----0-----0-------|
G|------------------|------------------|------------------|------------------|
D|------------------|------------------|------------------|------------------|
A|------------------|------------------|------------------|------------------|
E|--0-0-0-0-0-0-0-0-|--2-2-2-2-2-2-2-2-|--4-4-4-4-5-5-5-5-|--0-0-0-0-0-0-0-0-|

[Wem hier das durchgehende Anschlagen der 8tel auf der E-Saite nervt, möge
seinen Bassisten bitten, diesen Part zu übernehmen.]


Introriff B   [Bass übernimmt die Basstöne]
    E                  F#m                G#m   A            E
E|----5---4---------|------------------|----5---4---------|--0---------------|
H|----5---5---------|------4--5--5-----|----5---5---------|--0---------------|
G|----4---4---------|------4--4--4-----|----4---4---------|------------------|
D|------------------|------------------|------------------|------------------|
A|------------------|------------------|------------------|------------------|
E|------------------|------------------|------------------|------------------|


Chorusriff A
    E                  H/D#                C#m               F#m
E|------0-----0-----|------0-----0-----|------0-----0-----|------0-----0-----|
H|----0-----0-------|----0-----0-------|----0-----0-------|----0-----0-------|
G|------------------|------------------|------------------|------------------|
D|------------------|------------------|------------------|------------------|
A|------------------|--6-6-6-6-6-6-6-6-|--4-4-4-4-4-4-4-4-|------------------|
E|--0-0-0-0-0-0-0-0-|------------------|------------------|--2-2-2-2-2-2-2-2-|

    G#m     A          H/D#               E                  E
E|------0-----0-----|------0-----0-----|------0-----0-----|------0-----0-----|
H|----0-----0-------|----0-----0-------|----0-----0-------|----0-----0-------|
G|------------------|------------------|------------------|------------------|
D|------------------|------------------|------------------|------------------|
A|------------------|------------------|------------------|------------------|
E|--4-4-4-4-5-5-5-5-|--7-7-7-7-7-7-7-7-|--0-0-0-0-0-0-0-0-|--0-0-0-0-0-0-0-0-|

[Wie oben schon angemert: Wem hier das durchgehende Anschlagen der 8tel auf der E-Saite 
möge seinen Bassisten bitten, diesen Part zu übernehmen.]

Hier die verwendeten Akkorde
E     x799xx
H/D#  769xxx
F#    x91111xx
A     577xxx
E/G#  476xxx
H     799xxx
C#m   x466xx
Asus2 x02200


[  Intro  Introriff A   Introriff B]

[strumming]
E                              H/D#      E                             F#m
 Sag mir dass dieser Ort hier sicher ist   Und alles Gute steht hier still
A                               E/G#             E                      H
 Und dass das Wort dass du mir heute gibst	Morgen noch genauso gilt
       E                                    H/D#
Diese Welt ist schnell und hat verlernt beständig zu sein
            E                   F#m
Denn Versuchungen setzen ihre Frist
A                                  E/G#               C#m             H
 Doch bitte schwör, dass wenn ich wieder komm  Alles noch beim Alten ist


[Chorus Chorusriff A]
              E                        H/D#
Gib mir ein kleines bisschen Sicherheit
          C#m                         F#
In einer Welt in der nichts sicher scheint
        G#m           A      B	                         E
Gib mir in dieser schnellen Zeit	irgendwas, das bleibt

[strumming]
                    E                 H/D#
Gib mir einfach nur ein bisschen Halt
           C#m                   F#m
Wieg mich einfach nur in Sicherheit
         G#m            A      B
Hol mich aus dieser schnellen Zeit
              C#m           B      Asus2
Nimm mir ein bisschen Geschwindigkeit
             Asus2	      E
Gib mir was, irgendwas	das bleibt

[Interlude]
[ Introriff B  auf   |  E  |  E  |  E  |  E  | F#m  | F#m  | G#m  | G#m  |  ]


[Bridge]
[Powerchords - let it ring !!]

               Asus2                                  Asu2
Auch wenn die Welt den Verstand verliert	Das hier bleibt unberührt

        |  E  |  E  | F#m  | F#m  | G#m  A | H  |  E  | E  |
nichts passiert


[Chorus Powerchords]
              E
Gib mir ein kleines bisschen Sicherheit
          F#m
In einer Welt in der nichts sicher scheint
        G#m           A      H 	                         E
Gib mir in dieser schnellen Zeit	irgendwas, das bleibt


[strumming - leicht parm muted]
         E                           H/D#
Gib mir einfach nur ein bisschen Halt
           C#m                  F#m
Wieg mich einfach nur in Sicherheit
          E                    H/D# Hsus4 H
Hol mich aus dieser schnellen Zeit
              C#m           B     Asus2
Nimm mir ein bisschen Geschwindigkeit
         Asus2	       [tacet]
Gib mir was, irgendwas	das bleibt
Tap to rate this tab
# A B C D E F G H I J K L M N O P Q R S T U V W X Y Z