Song name
# A B C D E F G H I J K L M N O P Q R S T U V W X Y Z

Silbermond - Krieger Des Lichts tab

play it with Distortion!

Ihr muesst das komplette solo 2 mal spielen!
You have to play the whole solo 2 times behind !

e|-----------------------------------------------------------|
b|----15-15-15-15-15-15-15-15--------------------------------|
G|-----------------------------14-14-14-14-14-14-14-14-------| 3x
D|-----------------------------------------------------------|
A|-----------------------------------------------------------|
E|-----------------------------------------------------------|


e|-----------------------------------------------------------|
b|---15-15-15-15--17-17-17-17--15-15-15-15-------------------|
G|-------------------------------------------14-14-14-14-----|
D|-----------------------------------------------------------|
A|-----------------------------------------------------------|
G|-----------------------------------------------------------|

This is my firt Tab, so be politly ;)
Tap to rate this tab
 
# A B C D E F G H I J K L M N O P Q R S T U V W X Y Z